El Señor Es Mi Rey, Alabanzas Llamada Final (bajo)

Autor: Anónimo | 16894 visualizaciones



Intro

E |--------------------
A |--------------------
D |---9-9--9-9-7-9-----
G |--------------------


Verso

E |------------------------------------
A |--9---9---7----------9----9---------
D |----9---7---7-7-7-9----9----7-7-6-5-
G |------------------------------------


E |-------------5------------------------------
A |--5-------5----5-5-5-------5-5-------5-5-5--
D |----5--5-------------5--5------5--5--------5
G |--------------------------------------------

Esta parte va enseguida de la anterior

E |-------------------
A |----5--------9-----
D |--5----7- 9--------
G |-------------------

Terminando esta parte, comienza todo desde el Intro.





Calificar esta versión:
Aviso: Este fichero es trabajo propio de su transcriptor y representa su interpretación personal de la canción. El material contenido en esta página es para exclusivo uso privado, por lo que se prohibe su reproducción o retransmisión, así como su uso para fines comerciales.
Más versiones de El Señor Es Mi Rey, Alabanzas Llamada Final
El Señor Es Mi Rey
acordes
El Señor Es Mi Rey
bajo
Descubre más canciones de Alabanzas Llamada Final