Dulce Condena, Airbag (tablatura)

Autor: Anónimo | 39300 visualizaciones

Hola, esta para mi es la mejor canción de airbag.
Quería dejar algo un poco mas completo que lo que había,
El solo esta la parte que suena en limpio, sigue hasta el final
del tema pero no se entiende muy bien. Se puede improvisar
en la escala de C mayor que queda bien. Como siempre esta afinada
en Eb, dudas alevoodoo@ovi.com

INTRO: C-F-C-G

F                     C
Su pelo me hace recordar
F                        C
A una canción de alguna vez...
F                       C (B5-A5)
Sé que no sé decir que no,
F                       G
Me enferma tu forma de ser...

ESTRIBILLO
Dm      F         C        G
Una dulce condena tú me darás
Dm        F             C            G
Morir entre tus piernas, tan demencial...
Dm             F     C           G
No quiero desatarme de esta prisión...
Dm       F          G
Tu boca me envenenará...

F                      C (riff 1)
Recuerdo cuando yo te vi...
F                      C  (riff 2)
y también cuando te dejé...
F                     C (riff 3) y (B5-A5)
Y sé que dijiste que no
F                    G
Pero llamaste como ayer...


Dm      F         C        G
Una dulce condena tú me darás
Dm        F             C            G
Morir entre tus piernas, tan demencial...
Dm             F     C           G
No quiero desatarme de esta prisión...
Dm       F          G
Tu boca me envenenará...

SOLO
E-----------------------------------------------------------------------
B-----------------------------------------------------------------5-----
G---7^rp5p-----5~-------5--7^rp5p-----5~-------5~--7^rp5p-----5~----7~--
D---------6h7h-----6h7h----------6h7h-----6h7h-----------6h7h-----------
A-----------------------------------------------------------------------
E-----------------------------------------------------------------------
  rapido
E--------------------
B----8p6p5p----------
G---(7)----7p5p--5---
D--------------7h----
A--------------------
E--------------------

E----------------------------------------------------5-5---5-5---5------
B----------------------------------------------------5-5---5-5-----8~---
G---7^rp5p-----5~-------5--7^rp5p-----5~-------5-7~------7-----7--------
D---------6h7h-----6h7h----------6h7h-----6h7h--------------------------
A-----------------------------------------------------------------------
E-----------------------------------------------------------------------

E---5’5p---------------------
B-------8p6p5h6p5p------5~---
G-----------------7p5h7h-----
D----------------------------
A----------------------------
E----------------------------

E--------------------------------------5p--5h7p5h7h8p7p5p---------
B--------------------5p--5h6p5h6h8p6h8h--8h--------------8p7p5p---
G---------5p-5h7p5h7h--7h--------------------------------------7--
D---7p5h7h--7h----------------------------------------------------
A-----------------------------------------------------------------
E-----------------------------------------------------------------

E---/12~--12p/----------------------------------------------
B-------------8~----------------5h6h8p6p5p------------------
G-------------------------5h6h7h----------7p6p5h7^rp6p5h7~--
D-------------------5h6h7h----------------------------------
A-----------------------------------------------------------
E-----------------------------------------------------------

E-----------------------------5’7’5’7’8’10’8’7’---------/12^r/8h10~---
B---------------5’--5’6’8’6’8’-----------------10’8’6’----------------
G-------5’--5’7’--7’--------------------------------------------------
D---5’7’--7’----------------------------------------------------------
A---------------------------------------------------------------------
E---------------------------------------------------------------------

E---17^-17^-17^-17^r/15h17^~----17^r/15h17^~----/13-15~---
B---------------------------------------------------------
G---------------------------------------------------------
D---------------------------------------------------------
A---------------------------------------------------------
E---------------------------------------------------------
*el solo sique hasta que termina el tema pero no se lo escucha bien.

Dm      F         C        G
Una dulce condena tú me darás
Dm        F             C            G
Morir entre tus piernas, tan demencial...
Dm             F     C           G
No quiero desatarme de esta prisión...
Dm       F          G  (RIFF ídem al final pero vuelve a Dm)
Tu boca me envenenará...
Dm      F         C        G
Una dulce condena tú me darás
Dm        F             C            G
Morir entre tus piernas, tan demencial...
Dm             F     C           G
No quiero desatarme de esta prisión...
Dm       F          G
Tu boca me envenenará...

      No no  no  nono  no   nooo... yeah!
E----------------------------------------
B----------------------------------------
G----------------------------5~--/-------
D-5---5--3---2--3--2---0-----5~--/-------
A-5---5--3---2--3--2---0-----3~--/-------
E-3--------------------------------------
  Riff 1              Riff 2
  C          F
E-----------------------------------------------------------
B--/6-5--3-1-1~-----------10-13-10---10~----10-13-10-------
G-------------------/12~-12---------12-----12--------12/14~-
D-----------------------------------------------------------
A-----------------------------------------------------------
E-----------------------------------------------------------
 Riff 3
E--12~---12-10-8~--
B------------------
G------------------
D------------------
A------------------
E------------------

Referencias:
h: ligado ascendente
p: ligado descendente
^: estirar
^r: estirar y volver
~: vibrato
/: Slide
*: Armónico de púa
‘: tremolo de púa
(): armonico de tapping
Calificar esta versión:
Aviso: Este fichero es trabajo propio de su transcriptor y representa su interpretación personal de la canción. El material contenido en esta página es para exclusivo uso privado, por lo que se prohibe su reproducción o retransmisión, así como su uso para fines comerciales.
Más versiones de Dulce Condena, Airbag
Dulce Condena
acordes
Dulce Condena
tablatura
Descubre más canciones de Airbag