All Night Long, Airbag (tablatura)

Autor: Anónimo | 37581 visualizaciones

Hola, les dejo el tema que abre el segundo disco de la banda, sin duda
Un notable crecimiento. Es buenísimo, fácil y con mucho ritmo.
El solo parece complicado pero si se animan seguro que pueden.
Como siempre afinado en Eb y dudas alevoodoo@ovi.com

Intro (con wha wha)
    E           A      G   F#   E
E--------------------------------------
B--------------------------------------
G--------------------------------------
D---2--2~-------2~--------------2--2~--
A---2--2~---2-1-0~----5-5--4-4--2--2~--
E---0--0~-------------3-3--2-2--0--0~--

Riff E
E-----------------------
B-----------------------
G-----------------------
D----2------------------
A----2--------2-2-4-2---
E----0--0-3-4-----------

        E                A          D          A
Me escape de alguna prisión y todo gira alrededor
              E             A               D             A        B
Cuando me cruce con tu caminar tus piernas largas y algo más para mi.

                       D    A     E (riff)
Quiero lamer tu cuerpo all night long
                     D    A     E  (riff)
Quiero besar tu boca all night long
                              D  A E  (riff)
Y aunque no quieras que yo este  ahí
       D          A          B
No podrás, no podrás contra mí.

INTRO

           E                  A           D                 A
Va a explotar algo dentro de mi ya no distingo un no de un si
            E              A             D           A        B
Vamos nena ven y calma mi sed que tengo ganas de llegar hacia ti.

                       D    A     E (riff)
Quiero lamer tu cuerpo all night long
                     D    A     E  (riff)
Quiero besar tu boca all night long
                              D  A E  (riff)
Y aunque no quieras que yo este  ahí
       D          A          B
No podrás, no podrás contra mí.

SOLO
E-----------------------------------------------------------------------
B---17~--15~--12~-------------------------------------------------------
G------------------14p12p---12h~---------------12h14p12h14p12h14p12p----
D------------------------14h-----14p12h14~--14h---------------------14h-
A-----------------------------------------------------------------------
E-----------------------------------------------------------------------
E---------------------------------------15’12’14’12’15’12’14’12’15’12’14’
B------------------------------------------------------------------------
G-12h14p12h15p12h14p12p---12p--------------------------------------------
D----------------------14h---14p12h14~-----------------------------------
A------------------------------------------------------------------------
E------------------------------------------------------------------------

E-12’15’12’14’12p----------------------------------------------------12’’
B----------------15p12p----------------------------------12’’14’’15’’----
G----------------------14^12p--------------------12’’14’’----------------
D----------------------------14p12h14~---12’’14’’------------------------
A------------------------------------------------------------------------
E------------------------------------------------------------------------

E-14’’15^-15-14-13-12---17^-17-15-14-----------------
B------------------------------------17-15-14-12-----
G------------------------------------------------14~-
D----------------------------------------------------
A----------------------------------------------------
E----------------------------------------------------


                       D    A     E (riff)
Quiero lamer tu cuerpo all night long
                     D    A     E  (riff)
Quiero besar tu boca all night long
                              D  A E  (riff)
Y aunque no quieras que yo este  ahí
       D          A          B
No podrás, no podrás contra mí.

FINAL CON RIFF DE INTRO

Referencias:
h: ligado ascendente
p: ligado descendente
^: estirar
^r: estirar y volver
~: vibrato
/: Slide
*: Armónico de púa
‘: tremolo de púa
Calificar esta versión:
Aviso: Este fichero es trabajo propio de su transcriptor y representa su interpretación personal de la canción. El material contenido en esta página es para exclusivo uso privado, por lo que se prohibe su reproducción o retransmisión, así como su uso para fines comerciales.
Más versiones de All Night Long, Airbag
All Night Long
acordes
All Night Long
tablatura
Descubre más canciones de Airbag