Algo En Mi Mente, Airbag (tablatura)

Autor: Anónimo | 32272 visualizaciones

Hola, les dejo un muy buen tema, es similar a sinfonia electrica, facil.
esta afinado en Eb, cualquier duda alevoodoo@ovi.com

INTRO:
    G               D            Em                  C               G
E------------------------------------------------------------(10)/12-10~-
B-/12~--10h12p10-8-10~--8h10p8-7-8~---8-(10)/12-10-8-------8-------------
G-----------------------------------9----------------9~--9---------------
D------------------------------------------------------------------------
A------------------------------------------------------------------------
E------------------------------------------------------------------------
                    D             C                                G
E------------------------------------------------------------------15~---
B--/12~--10h12p10-8-10~--8h10p8-7-8~---/13-15-16~--16-15~--13--12--------
G------------------------------------------------------------------------
D------------------------------------------------------------------------
A------------------------------------------------------------------------
E------------------------------------------------------------------------


G             D            C          D
  Nena no entiendo si te quedas o te marchas
G              D             C        D
  Me estoy cansando de tus trampas
Am           C         G
  Muchas pensé dejarte ir,
Am                  Bm                 C         D
  Pero cuando estoy dentro de ti, no puedo resistir.

G    D             Em   C              G   D          C  D
Uo...o  Algo en mi mente, siento que vuelve en la ciudad
G    D             Em   C              G   D             C  D
Uo...o  algo en mi mente, siento que vuelve cuando no estas.

SOLO 1 IDEM INTRO (base G D Em C  G D C Am)

G             D             C    D
  Sé que me mientes tantas veces
G           D             C     D
  Lloras y ríes no lo entiendes
Am                  C             G
  No pretendas que deje todo por ti
Am                    Bm                   C          D
  Si tus piernas me quieren llevar, no me voy a resistir.

G    D             Em   C              G   D          C  D
Uo...o  Algo en mi mente, siento que vuelve en la ciudad
G    D             Em   C              G   D             C  D
Uo...o  algo en mi mente, siento que vuelve cuando no estas.

SOLO 2 (base G D Em C  G D C Am)
E-----------------14-14h15~---15-14--------------------------------------
B--17~~--15~---17-------------------17-------------------------------15--
G---------------------------------------17~~--/14p13p12-14^p13p12-14^----
D------------------------------------------------------------------------
A------------------------------------------------------------------------
E------------------------------------------------------------------------



E-------------------------------------------------------------
B---------------------------------------------12-13-15/17-15--
G--14-14~----14^-12h14p12p---12~--------12-14-----------------
D-------------------------14h-----13h14-----------------------
A-------------------------------------------------------------
E-------------------------------------------------------------

E---------------(17)/19-17-------
B---15-15-15-17------------------
G--------------------------------
D--------------------------------
A--------------------------------
E--------------------------------

Am           C         G
  Muchas pensé dejarte ir,
Am                  Bm                 C         D  D7
  Pero cuando estoy dentro de ti, no puedo resistir.

G    D             Em   C              G   D          C  D
Uo...o  Algo en mi mente, siento que vuelve en la ciudad
G    D             Em   C              G   D             C  D
Uo...o  algo en mi mente, siento que vuelve cuando no estas.

G    D             Em   C              G   D          C  D
Uo...o  Algo en mi mente, siento que vuelve en la ciudad
G    D             Em   C              G   D             C  D
Uo...o  algo en mi mente, siento que vuelve cuando no estas.


Referencias:
h: ligado ascendente
p: ligado descendente
^: estirar
^r: estirar y volver
~: vibrato
/: Slide
*: Armónico de púa
‘: tremolo de púa
(): comienzo de arrastre sin pulsar.
Calificar esta versión:
Aviso: Este fichero es trabajo propio de su transcriptor y representa su interpretación personal de la canción. El material contenido en esta página es para exclusivo uso privado, por lo que se prohibe su reproducción o retransmisión, así como su uso para fines comerciales.
Más versiones de Algo En Mi Mente, Airbag
Algo En Mi Mente
acordes
Algo En Mi Mente (ver 2)
acordes
Algo En Mi Mente
tablatura
Descubre más canciones de Airbag