The Missing Frame, Afi (tablatura)

Autor: drako zl | 45170 visualizaciones



BUENO AQUÍ LE MANDO LA TABLATURA DE ESTA CANCION DE AFI QUE ES LA VERCION EN VIVO DEL
DEL DISCO “I HEARD A VOICE” ESPERO QUE LES GUSTE


|---------------------------------------------------------------------------------------|
|---------------------------------------------------------------------------------------|
|---------------------------------------------------------------------------------------|
|-------8-8--8-6-6--6-8-8--8--------8-8--8-6-6--6---------------8-8--8-6-6--6-8-8--8----|
|-------------------------------------------------8-8--8--------------------------------|
|6-6--6-----------------------6-6--6---------------------6-6--6-------------------------|

|---------------------------------------------------------------------------------------------|
|---------------------------------------------------------------------------------------------|
|---------------------------------------------------------------------------------------------|	
|-------8-8--8-6-6--6---------------8-8--8-6-6--6-8-8—8---------8-8--8-6se hace hacia arriba--|
|---------------------8-8--8--------------------------------------------y abajo---------------|
|6-6--6----------------------6-6--6----------------------6-6—6--------------------------------|


One at a time, |
             g|-----------------------------------------------|
             d|-----------------------------------------------|
             a|16-16-16-16-16-16-16-16-15-15-15-15-15-15-15-15|
             e|-----------------------------------------------|
Constants becomes surreal 
             g|-----------------------------------------------|
             d|-----------------------------------------------|
             a|16-16-16-16-16-16-16-16-15-15-15-15-15-15-15-15|
             e|-----------------------------------------------|
One at a time, 
             g|---------------------------------------|
             d|---------------------------------------|
             a|13-13-13-13-13-13-13-15-15-15-15-15-15-|
             e|---------------------------------------|
Heart attacks are concealed 
             g|---------------------------------------
             d|---------------------------------------|
             a|16-16-16-16-16-16-16-15-15-15-15-15-15-|
             e|---------------------------------------|
I can see that I 
            d|--------------------------|
            A|4-4-4-4-4-4-4-4-4-4-4-4-4-|
            E|--------------------------|
Lose the joys of life 
              g|--------------------------|
              d|--------------------------|
              a|3-3-3-3-3-3-3-3-3-3-3-3-3-|
              e|--------------------------|
one at a time 
        d|---------------------------------|
        a|16-16-16-16-16-16-15-15-15-15-15-|
        e|---------------------------------|
Suicides are revealed 
    d|------------------------------|
    A|16-16-16-16-16-15-15-15-15-15-|
    E|------------------------------|
You will see that I lost another life 
               d|------------------------------------|
               A|4-4-4-4-4-4-4-4-4-3-3-3-3-3-3-3-3-3-|
               E|------------------------------------|
But tonight 
              d|------6--|
              a|6--8--4--|
              E|---------|
I\'ll let you tear it up 

                            d|------6--|
                            a|6--8--4--|
                            E|---------|


If you don\'t wake me up 
                            d|------6--|
                            a|6--8--4--|
                            E|---------|
But if you tear it, 
                       d|------6--|
                       a|6--8--4--|
                       E|---------|
We can\'t repair it 
                      d|---------|
                      a|6--8--6--|
                      E|------4--|
So please don\'t wake me 
                          d|---------|
                          a|6--8--6--|
                          E|------4--|
till someone cares 
           g|---------------------------|
           d|-4-4-4-4-4-4-4-4-4-4-4-4-4-|
           a|-4-4-4-4-4-4-4-4-4-2-4-4-4-|
           e|-2-2-2-2-2-2-2-2-2-2-2-2-2-|
now no one cares 
        g|6-----5-----|
        d|6(x9)-5(x9)-|
        a|4-----3-----|
        e|------------|

Sigue el intro con algunas variaciones
|---------------------------------------------------------------------------------------|
|---------------------------------------------------------------------------------------|
|---------------------------------------------------------------------------------------|
|-------8-8--8-6-6--6-888------------8-8--8-6-6--6-8-8--8----------8-8--8-6-6--6--------|
|--------------------------------------------------------------------------------8-8--8-|
|6-6--6-------------------6-6--6---------------------------6-6--6-----------------------|

|----------------------------------------------------------------------|
|----------------------------------------------------------------------|
|----------------------------------------------------------------------|	
|-------8-8--8-6-6--6-8-8--8---------8-8--8-10---se hace hacia arriba--|
|------------------------------------------------y abajo---------------|
|6-6--6----------------------6-6--6------------------------------------|


One at a time 
           g|-----------------------------------------------|
           d|-----------------------------------------------|
           a|16-16-16-16-16-16-16-16-16-15-15-15-15-15-15-15|
           e|-----------------------------------------------|
I watch them all forget 
           g|-----------------------------------------------|
           d|-----------------------------------------------|
           a|16-16-16-16-16-16-16-16-16-15-15-15-15-15-15-15|
           e|-----------------------------------------------|
One at a time 
           g|---------------------------------------|
           d|---------------------------------------|
           a|13-13-13-13-13-13-13-15-15-15-15-15-15-|
           e|---------------------------------------|
I\'m lost in little deaths 
          g|---------------------------------------|
          d|---------------------------------------|
          a|16-16-16-16-16-16-16-15-15-15-15-15-15-|
          e|---------------------------------------|
It\'s the place that I 
                  d|--------------------------|
                  A|4-4-4-4-4-4-4-4-4-4-4-4-4-|
                  E|--------------------------|
I forget my life 
           g|--------------------------|
           d|--------------------------|
           a|3-3-3-3-3-3-3-3-3-3-3-3-3-|
           e|--------------------------|


Like tonight 
              d|------6--|
              a|6--8--4--|
              E|---------|
I\'ll let you tear it up 

                            d|------6--|
                            a|6--8--4--|
                            E|---------|
If you don\'t wake me up 
                            d|------6--|
                            a|6--8--4--|
                            E|---------|
But if you tear it, 
                       d|------6--|
                       a|6--8--4--|
                       E|---------|
We can\'t repair it 
                      d|---------|
                      a|6--8--6--|
                      E|------4--|
So please don\'t wake me 
                          d|---------|
                          a|6--8--6--|
                          E|------4--|
till someone cares 
           g|---------------------------|
           d|-4-4-4-4-4-4-4-4-4-4-4-4-4-|
           a|-4-4-4-4-4-4-4-4-4-2-4-4-4-|
           e|-2-2-2-2-2-2-2-2-2-2-2-2-2-|
now no one cares 
        g|6-----5-----|
        d|6(x9)-5(x9)-|
        a|4-----3-----|
        e|------------|
suige la parte del bajo y este pequeño solo

e|------------------|
b|-------6/9--------|
g|8/10-8-----4/6-5--|

el siguiente verso va acompañado por esta figura 

d|-----18--------18--18-18------18--------18---18-18-|
a|1616----161616---16------1515----151515----15------| 
e|---------------------------------------------------| 
         ////Will the flood behind me|||||                                                     
d|-----18--------18--18-18------18--------18---18-18-|
a|1616----161616---16------1515----151515----15------| 
e|---------------------------------------------------| 
                                                  
d|-----18--------18--18-18------18--------18---18-18-|
a|1616----161616---16------1515----151515----15------| 
e|---------------------------------------------------| 
    ////Put out the fire inside me?|||||
d|-----18--------18--18-18------18--------18---18-18-| 
a|1616----161616---16------1515----151515----15------| 
e|---------------------------------------------------| 

d|-----18--------18--18-18------18--------18---18-18-|
a|1616----161616---16------1515----151515----15------|
e|---------------------------------------------------| 
     ////Will the flood behind me|||||          m                                      
d|-----18--------18--18-18------18--------18---18-18—
a|1616----161616---16------1515----151515----15------
e|---------------------------------------------------

a|16-15-16-18-16-18-20-18-16-15--|
e|-------------------------------|
 //Put out the fire inside me?||

                                              
I\'ll let you tear it up... 

   Oh Oh Oh 
 g|6------6-|
 D|6------6-|
 A|4------4-|
 E|---------|
I\'ll let you break it up 

   Oh Oh Oh 
 g|6------6-|
 D|6------6-|
 A|4------4-|
 E|---------|
If you don\'t wake me up 

   Oh Oh Oh 
 g|---------|
 D|8------8-|
 A|8------8-|
 E|6------6-|
But if you tear it 

   Oh Oh Oh 
 g|---------|
 D|8------8-|
 A|8------8-|
 E|6------6-|

We can\'t repair it 

   Oh Oh Oh 
 g|----------|
 D|6---------|
 A|6----8-10-|
 E|4----6-8--|

So please don\'t wake me 

   Oh Oh Oh 
 g|----------|
 D|6---------|
 A|6---------|
 E|4----6-8--|

Till someone cares, 
           g|---------------------------|
           d|-4-4-4-4-4-4-4-4-4-4-4-4-4-|
           a|-4-4-4-4-4-4-4-4-4-2-4-4-4-|
           e|-2-2-2-2-2-2-2-2-2-2-2-2-2-|

Now no one cares...cares 
        g|6-----5-----|
        d|6(x9)-5(x9)-|
        a|4-----3-----|
           e|------------|
   Oh Oh Oh 
 g|6------6-|
 D|6------6-|
 A|4------4-|
 E|---------|
 
   I\'ll let you tear it up 
   
   Oh Oh Oh 
 g|6------6-|
 D|6------6-|
 A|4------4-|
 E|---------|

If you don\'t wake me up 

   Oh Oh Oh 
 g|--------|
 D|8-----8-|
 A|8-----8-|
 E|6-----6-|
   
   Cause it\'s apparent 
  
   Oh Oh Oh 
 g|--------|
 D|8-----8-|
 A|8-----8-|
 E|6-----6-|

   That you don\'t care and 
  
   Oh Oh Oh 
 g|-----------------|
 D|6----------------|
 A|6----------------|
 E|4-4-4-4-6-6-6-8--|

   It\'s nothing to me 
  
   Oh Oh Oh 
 g|-------------|
 D|6------------|
 A|6------------|
 E|4-4-4-4-6-8--|

Cause I don\'t care 
            e|------------------------|
            B|10-10-10-10-13-13-13-14-|
            G|------------------------|
Now no one cares 
            e|------------------------|
            B|10-10-10-10-13-13-13-14-|
            G|------------------------|


 g|-----|
 D|--8--|
 A|--8--|
 E|--6--|

Esto es todo espero que les guste  me salio muy bien así que échenle ganas  para que se oiga chido

(x9): quiere decir que se repite nueve veces

Los numeros juntos (161616) quiere decir que se tocan juntos





Calificar esta versión:
Aviso: Este fichero es trabajo propio de su transcriptor y representa su interpretación personal de la canción. El material contenido en esta página es para exclusivo uso privado, por lo que se prohibe su reproducción o retransmisión, así como su uso para fines comerciales.
Más versiones de The Missing Frame, Afi
The Missing Frame
tablatura
The Missing Frame (ver 2)
tablatura
Descubre más canciones de Afi