Oscuridad, Adrenalina (acordes)

Autor: diasclavel | 19726 visualizaciones

amcdfg


<<<<<<<<<>>>>>>>>>>>> 
-------|---2----|----3----|---------|---1-----|----------|----------|---------
-------|---3----|----3----|----1----|---1-----|----1-----|----1-----|---------
-------|---2----|---------|----2----|---2-----|----------|----------|---------
-------|--------|---------|----2----|---3-----|----2-----|----------|---------
-------|--------|----2----|---------|---3-----|----3-----|----2-----|---------
-------|--------|----3----|---------|---1-----|----------|----3-----|---------
           D        G          Am       F          C          G?              

-----|-----2-2--2--3-\-5--------------------------------3--3--------------|---
-----|-----3-3--3--3-------1-1--1----1--1---1-----1-1---3--3--------------|---
-----|-----2-2--2--2-------2-2--2----------------------------------------0|---
-----|---------------------2-2--2----2--2---2----------------------0--0p2-|---
-----|-------------------------------3--3---3-----2-2---2--2----0p2-------|---
-----|--------------------------------------------3-3---3--3--------------|---
         intro y verso                                                        

----|-2----2----2---2--2-x--x----2--2---2--2--2--|---0-0-0-0-0-x-x-0-0-0-0-0|-
----|-4----4----4---4--4-x--x----4--4---4--4--4--|---2-2-2-2-2-x-x-2-2-2-2-2|-
----|-4----4----4---4--4-x--x----4--4---4--4--4--|---2-2-2-2-2-x-x-2-2-2-2-2|-
----|-2----2----2---2--2-x--x----2--2---2--2--2--|---2-2-2-2-2-x-x-2-2-2-2-2|-
----|-2----2----2---2--2-x--x----2--2---2--2--2--|-------------x-x-2-2-2-2-2|-
----|-2----2----2---2--2-x--x----2--2---2--2--2--|-------------x-x-2-2-2-2-2|-
            riff 1                                                            

---|-3-3-3-3-3--x-x--3-3-3-3-3|---0-0-0-0-0--x-x--0-0-0-0-0-|-----------------
---|-3-3-3-3-3--x-x--3-3-3-3-3|---2-2-2-2-2--x-x--2-2-2-2-2-|-----------------
---|-4-4-4-4-4--x-x--4-4-4-4-4|---2-2-2-2-2--x-x--2-2-2-2-2-|-----------------
---|-5-5-5-5-5--x-x--5-5-5-5-5|---2-2-2-2-2--x-x--2-2-2-2-2-|-----------------
---|-5-5-5-5-5--x-x--5-5-5-5-5|--------------x-x------------|-----------------
---|-3-3-3-3-3--x-x--3-3-3-3-3|-----------------------------|-----------------
                                                                              

---|--3|--3-|----|--1-|----|----|---------------------------------------------
---|--3|--3-|--1-|--1-|--1-|--1-|---------------------------------------------
---|--2|----|--2-|--2-|----|----|---------------------------------------------
---|---|----|--2-|--3-|--2-|----|---------------------------------------------
---|---|--2-|----|--3-|--3-|--2-|---------------------------------------------
---|---|--3-|----|--1-|----|--3-|---------------------------------------------





Calificar esta versión:
Aviso: Este fichero es trabajo propio de su transcriptor y representa su interpretación personal de la canción. El material contenido en esta página es para exclusivo uso privado, por lo que se prohibe su reproducción o retransmisión, así como su uso para fines comerciales.
Más versiones de Oscuridad, Adrenalina
Oscuridad
acordes
Oscuridad (ver 2)
acordes
Descubre más canciones de Adrenalina