En Tus Sueños, Adammo (tablatura)

Autor: danielito1 | 45095 visualizaciones

intro

1ra Guitarra

E|-------------------------------|
B|-75-75-78-75-75-753-75-75-783--|
G|-------------------------------|
D|-------------------------------|  (x2)
A|-------------------------------|
E|-------------------------------|

2da Guitarra

E|--------------------------|
B|--------------------------|
G|-7777-4444------7777------|
D|-7777-4444-5555-7777------|  (x2)
A|-5555-2222-5555-5555------|
E|-----------3333-----------|

VERSO I: (0:26) Se que ganas no te falta...

Aqui entra con el bajo, luego al minuto (0:33) de escucha un
Eco con la Guitarra...

E|------------|
B|------------|
G|-7-4---7----| La Primera o la Segunda
D|-7-4-5-7----|
A|-5-2-5-5----|
E|-----3------|

PRE CORO: (0:40) Cuando te despiertes...

1ra Guitarra

E|----------------------|
B|--------233^-233^-23^-|
G|----------------------|
D|-555555---------------|
A|-555555---------------|
E|-333333---------------|

2da Guitarra

E|---------------------|
B|---------------------|
G|--------77-7-77-7-77-|
D|-555555-77-7-77-7-77-|
A|-555555-55-5-55-5-55-|
E|-333333--------------|

1ra y/o 2da Guitarra : (0:46)

Y en tus sueños the voy a esperar...

E|-----------------------|
B|-----------------------|
G|-----------------------|
D|-22222-44444-555555-7--|
A|-22222-44444-555555-7--|
E|-------22222-333333-5--|

CORO : (0:53) ouh ouh ooo...

1ra Guitarra

Aqui hay un sonidito que hacela primera...

E|---5-----5-----5-----5----5--|
B|-23-3--23-3--23-3--23-3-23-3-| Lo repites hasta
G|-----------------------------| llegar al PRE-VERSO
D|-----------------------------|
A|-----------------------------|
E|-----------------------------|

2da Guitarra

E|-------------------------|
B|-------------------------|
G|-------77777-------------|
D|-55555-77777-777777777---|  X5
A|-55555-55555-777777777---|
E|-33333-------555555555---|

PRE-VERSO: (1:17)

1ra Guitarra

E|-5^5^5^5^5^-|----------------------------|
B|------------|----------------------------|
G|------------|--7-67---7-67---7-67---7-67-|
D|------------|55-5---55-5---44-4---44-4---|
A|------------|----------------------------|
E|------------|----------------------------|
              Esto esta al minuto (1:20)
              Aqui se juega con las notas

2da Guitarra

E|----------------------------------------|
B|----------------------------------------|
G|----------------------------------------|
D|-7-7-7-77-5-----------------------------|
A|-7-7-7-77-5-----------------------------|
E|-5-5-5-55-3-----------------------------|

VERSO II : (1:26)

1ra y/o 2da Guitarra

E|----------------|
B|----------------|
G|-7-7---------7--|
D|-7-7-9-975-5-7--|  (x2)
A|-5-5-9-975-5-5--|
E|-----7-753-3----|
       Rapidito

PRE CORO: (1:40) Cuando te despiertes...

1ra Guitarra

E|----------------------|
B|--------233^-233^-23^-|
G|----------------------|
D|-555555---------------|
A|-555555---------------|
E|-333333---------------|

2da Guitarra

E|---------------------|
B|---------------------|
G|--------77-7-77-7-77-|
D|-555555-77-7-77-7-77-|
A|-555555-55-5-55-5-55-|
E|-333333--------------|

1ra y/o 2da Guitarra : (1:47)

Y en tus sueños the voy a esperar...

E|-----------------------| E|--333-22-3--|Distorcion
B|-----------------------| B|------------|
G|-----------------------| G|------------|
D|-22222-44444-555555-7--| D|------------|
A|-22222-44444-555555-7--| A|------------|
E|-------22222-333333-5--| E|------------|
                            al final hay un
                            sonido asi creo..

CORO : (1:53) ouh ouh ooo...

1ra Guitarra

Aqui hay un sonidito que hacela primera...

E|---5-----5-----5-----5----5--|
B|-23-3--23-3--23-3--23-3-23-3-| Lo repites hasta
G|-----------------------------| llegar al OUTRO
D|-----------------------------|
A|-----------------------------|
E|-----------------------------|

2da Guitarra

E|-------------------------|
B|-------------------------|
G|-------77777-------------|
D|-55555-77777-777777777---|  X5
A|-55555-55555-777777777---|
E|-33333-------555555555---|

PRE-OUTRO: (2:17)

1ra Guitarra         2da Guitarra

E|-5^5^5^5^5^-| E|--------------|
B|------------| B|--------------|
G|------------| G|--------------|
D|------------| D|-7-7-7-77-5---|
A|------------| A|-7-7-7-77-5---|
E|------------| E|-5-5-5-55-3---|

OUTRO: (2:20)

1ra Guitarra

E|-------------------------------------------------------|
B|-------------------------------------------------------|
G|--7-67---7-67---7-67---7-67---7-67---7-67---7-67---7-67|
D|55-5---55-5---44-4---44-4---99-9---99-9---77-7---77-7--|
A|-------------------------------------------------------|
E|-------------------------------------------------------|

2da Guitarra

E|-----------------------------|
B|-----------------------------|
G|---------------444444--------|
D|-555555-444444-444444-777777-|
A|-555555-444444-222222-777777-|
E|-333333-222222--------555555-|

SOLO: (2:33)

1ra Guitarra

E|-----------------------|
B|--333-555-777-8888-75--| x2
G|-----------------------|
D|-----------------------|
A|-----------------------|
E|-----------------------|

E|-------------------------------------------------|
B|--333-555-777-888-10-12-1010-1010-1010-10-10-10^-|
G|-------------------------------------------------|
D|-------------------------------------------------|
A|-------------------------------------------------|
E|-------------------------------------------------|
                                aqui es 10

2da Guitarra

E|------------------------------------------------|
B|------------------------------------------------|
G|---------------444444---------------------------|
D|-555555-444444-444444-777777-77-77-77-77-7-7-7^-|
A|-555555-444444-222222-777777-77-77-77-77-7-7-7^-|
E|-333333-222222--------555555-55-55-55-55-5-5-5--|

CORO : (2:50) ouh ouh ooo...

1ra Guitarra

Aqui hay un sonidito que hacela primera...

E|---5-----5-----5-----5----5--|
B|-23-3--23-3--23-3--23-3-23-3-|
G|-----------------------------|
D|-----------------------------|
A|-----------------------------|
E|-----------------------------|

2da Guitarra

E|-------------------------|
B|-------------------------|
G|-------77777-------------|
D|-55555-77777-777777777---|  X5
A|-55555-55555-777777777---|
E|-33333-------555555555---|

FINAL: (3:17)

1ra Guitarra

E|-----------------------------------------|
B|-5/77777-5/77777-101010-888-777-888-1010-|
G|-----------------------------------------|
D|-----------------------------------------|
A|-----------------------------------------|
E|-----------------------------------------|

E|-------------------------------|
B|-5/77777-5/77777---------------|
G|-------------------------------|
D|-----------------77-77-77-77---|
A|-----------------77-77-77-77---|
E|-----------------55-55-55-55---|

2da Guitarra

E|-------------------------|
B|-------------------------|
G|-------77777-------------|
D|-55555-77777-777777777---|  X2
A|-55555-55555-777777777---|
E|-33333-------555555555---|
Calificar esta versión:
Aviso: Este fichero es trabajo propio de su transcriptor y representa su interpretación personal de la canción. El material contenido en esta página es para exclusivo uso privado, por lo que se prohibe su reproducción o retransmisión, así como su uso para fines comerciales.
Más versiones de En Tus Sueños, Adammo
En Tus Sueños
acordes
En Tus Sueños
tablatura
Descubre más canciones de Adammo