Bonny, Ac/dc (tablatura) (ver 2)

Autor: fede93 | 36243 visualizaciones

E|-------/----------------------------------------------
B|-------/----------------------------------------------
G|---3---/-------------------------------------7-9-7----
D|---5---/--5-5-7-9-9-7-5-5----------5-5-7-9-9----------
A|---5---/------------------7-5--5-7--------------------
E|-------/----------------------------------------------

E|-------------------------------------------------------------
B|-------------------------------------------------------------
G|---7-9-9-7-----7-----------------------------7-9-7~----------
D|-----------9-9---10-9-7-5-5~-------5-5-7-9-9-------9p7-9p7-7-
A|-------------------------------5-7---------------------------
E|-------------------------------------------------------------

E|----------/
B|----------/
G|---3~~~---/
D|---5~~~---/
A|---5~~~---/
E|----------/

Comentarios del colaborador: Espero que les haya gustado; esta es como un himno que toco Angus Young en un concierto y engancho esta introduccion con la cancion "Highway To Hell" y la verdad es que queda muy bueno, otra vez, espero que les guste... dejen sus comentarios porfavor

Calificar esta versión:
Aviso: Este fichero es trabajo propio de su transcriptor y representa su interpretación personal de la canción. El material contenido en esta página es para exclusivo uso privado, por lo que se prohibe su reproducción o retransmisión, así como su uso para fines comerciales.
Más versiones de Bonny, Ac/dc
Bonny
tablatura
Bonny (ver 2)
tablatura
Descubre más canciones de Ac/dc