Back In Black (intro), Ac/dc (tablatura) (ver 3)

Autor: erickchidor | 20877 visualizaciones

ps aqui esta cancion que sake espero q les guste es mi primera cancion asi q puede haber 
salido algo mal pero acepto recomendaciones para mejorarla

esto es el momento en el que empieza la cancion el intro si puedo para la proxima la 
subire completa o solamente el solo jeje


------2--2--2------------------3-0---------------------------------
------3--3--3----2--2--2-----------3-0-----------------------------
------2--2--2----2--2--2---------------3bh0-----------------------
-2---------------2--2--2-------------------------------------------
-2-----------------------------------------------------------------
-------------------------------------------------------------------


------2--2--2---------------------------------------------------
------3--3--3----2--2--2-----------------------------------------
------2--2--2----2--2--2--------------------------------------
-2---------------2--2--2-------------------------------------------
-2--------------------------2----3----4----5-----------------------
------------------------------4----5----6----7---------------------

despues de terminar lo ultimo repetimos desde el principio rapidamente

Comentarios del colaborador: es mi primera cancion denme recomendaciones para mejorarla

Calificar esta versión:
Aviso: Este fichero es trabajo propio de su transcriptor y representa su interpretación personal de la canción. El material contenido en esta página es para exclusivo uso privado, por lo que se prohibe su reproducción o retransmisión, así como su uso para fines comerciales.
Más versiones de Back In Black (intro), Ac/dc
Back In Black (intro)
tablatura
Back In Black (intro) (ver 2)
tablatura
Back In Black (intro) (ver 3)
tablatura
Descubre más canciones de Ac/dc