El Es El único Dios, Abel Zavala (tablatura) (ver 2)

Autor: Anónimo | 22931 visualizaciones



Ok, vi que todavia hay muchas partes en este canto que se ha
escrito,
Aqui les mando el canto completo con todos los riffs.
Que Dios los bendiga.

Intro:

 E |-------------------------|-------------------------
 B |-------------------------|-------------------------
 G |-----------7-6-----------|-----------7-6---4-----6-
 D |---------5-----5---5-----|---------5-----5---5-----
 A |-----2-5---------2---5-4-|-----2-5-------------5---
 E |-3-5---------------------|-3-5---------------------

 E |-------------------------|-------------------------
 B |-------------------------|-------------------------
 G |-----------7-6-----------|-------------------------
 D |---------5-----5---5-----|---------5---------------
 A |-----2-5---------2---5-4-|-----2-5---5-3-----------
 E |-3-5---------------------|-3-5---------------------

Coro #1:
  G                  F
Venid y adoremos postrados exaltemos
C                 Cm9
Al Rey de la creación
G                      A*?(Riff de A/La)?*
Aquel que es perfecto es Santo y es Eterno
C                  Cm
El es el Unico Dios, El es Señor

Riff intermedio:
*Notas por si quiere tocar el piano y la guitarra acoustica*
G-A-G-A A-B-A-B
G-A-G-A A-B-A-D


 E |-------------------------|-------------------------
 B |-8-10-10-8-10---10-------|--10-12-12-10-12---------
 G |-------------------------|-------------------------
---------------------------------------------------------
 E |-------------------------|-------------------------
 B |-8-10-10-8-10---10-------|--10-12-12-10-10/15------
 G |-------------------------|-------------------------

Guitarra Acoustica:
  D and E in the chorus is like below
  D/Re y E/Mi en el coro se tocan asi:

       D/Re   E/Mi
 E |---10------12-
 B |---10------12-
 G |---7-------9--
 D |---7-------9--
 A |--------------
 E |--------------

Coro #2: Guitarra Acoustica y Bajo tocan la mayoria
        G
    Hermosura y bondad
        D
Es la esencia de tu hogar
        D            (E)*añadir el effecto de E cada cuando se requiere
Y tus juicios son verdad
       G
    Pleno en integridad
     D             (E)*añadir el effecto de E cada cuando se requiere
El adorno de tu hogar
       D           E/ Segunda Vez G para regresar a el Coro #1
Es perfecta santidad

Solo:
Primero como de el Intro y luego

 E |-------------------------|---------------------------------
 B |-------------------------|---------------------------------
 G |-----------7-6-----------|-----------7-5-------------------
 D |---------5-----5---5-----|---------5-----7--6-5-5-7--------
 A |-----2-5---------2---5-4-|-----2-5------------------7-6-5-3
 E |-3-5---------------------|-3-5-----------------------------

*?(Riff de A/La)?*Este se toca en esa parte la segunda vez de
el Coro #1

 E |-------------------------|-------------------------
 B |-------------------------|-------------------------
 G |-----6-------------------|-------------------------
 D |-------7-----------------|-------------------------
 A |---------7-5-------------|-------------------------
 E |-------------------------|-------------------------
Este Album esta buenisimo, Por favor tratenlo y si necesitan mas
ayuda mandenme un correo.
[email protected]
Que Dios les bendiga!  !!!!Naty te Amo!





Calificar esta versión:
Aviso: Este fichero es trabajo propio de su transcriptor y representa su interpretación personal de la canción. El material contenido en esta página es para exclusivo uso privado, por lo que se prohibe su reproducción o retransmisión, así como su uso para fines comerciales.
Más versiones de El Es El único Dios, Abel Zavala
El Es El único Dios
acordes
El Es El único Dios
tablatura
El Es El único Dios (ver 2)
tablatura
Descubre más canciones de Abel Zavala