De Tal Manera, Abel Zavala (bajo)

Autor: Anónimo | 20107 visualizaciones



     estrofa

A----------------------0-00-0-----------
E-8-88-8-3-33-3-1-11-1--------3-33-3-8~-
                                          (X2)
A----------------------0-00-0-----------
E-8-88-8-3-33-3-1-11-1--------3-33-3-8~-

     CORO

A--------0-00-0-------
E-8-88-8--------33/88-

A-0-00-0-------
E--------33/88-

A-0-00-0-------
E--------33/11-

A---------------
E-3-33-3----1/3-

A-0-00-0-------
E--------33/88-

A-0-00-0-------
E--------33/88-

A-0-00-0-------
E--------33/11-

A-----------------------
E-3-33-3----1/3------8~-

OTRA VEZ LA ESTROFA
Y CORO

SUBE A RE

CORO
Y FINAL





Calificar esta versión:
Aviso: Este fichero es trabajo propio de su transcriptor y representa su interpretación personal de la canción. El material contenido en esta página es para exclusivo uso privado, por lo que se prohibe su reproducción o retransmisión, así como su uso para fines comerciales.
Más versiones de De Tal Manera, Abel Zavala
De Tal Manera
acordes
De Tal Manera
bajo
Descubre más canciones de Abel Zavala