Bailando Con Tu Sombra, Abel Pintos (tablatura) (ver 2)

Autor: Anónimo | 19112 visualizaciones

BAILANDO CON TU SOMBRA (ALELÍ)
versión folk

capo en 2° traste

Notas:  LAm ? MI ? FA ? DO - SOL 
         0     0    1    3    3
         1     0    1    5    3
         2     1    2    5    4
         2     2    3    5    5
         0     2    3    3    5
         X     0    1    x    3

     Intro:
E||------------------------| 
B||-----1-----1-----1------| 
G||------------------------|   X2 
D||---2-----2-----2-----2--| 
A||-0-----0-----0-----0----| 
E||------------------------|


  Estrofa: 

  Lam                       MI
  Quien podrá quererte como yo te quiero amor
E||--------------------------|--------------------------| 
B||-----1-----1-----1-----1--|-----0-----0----0------0--|
G||--------------------------|--------------------------| 
D||---2-----2-----2-----2----|---2-----2----2------2----|
A||-0-----0-----0-----0------|-------2-----------2------| 
E||--------------------------|-0-----------0------------|
   FA                         DO                    MI 
   Quién pregunto quién podrá quererte como yo
E||--------------------------|--------------------------| 
B||-----1-----1-----1-----1--|-------------------------0|
G||--------------------------|-----5-----5-----------1--| 
D||---3-----3-----3-----3----|---5-----5-----5-----2----|
A||-------3-----------3------|-3-----3-----3-----2------| 
E||-1-----------1------------|--------------------------|
   Lam                    MI               
   Siempre lo decías y me atabas a tu piel
E||--------------------------|--------------------------| 
B||-----1-----1-----1-----1--|-----0-----0----0------0--|
G||--------------------------|--------------------------| 
D||---2-----2-----2-----2----|---2-----2----2------2----|
A||-0-----0-----0-----0------|-------2-----------2------| 
E||--------------------------|-0-----------0------------|
   FA                  DO
   Con ramo de besos y escuchábamos caer
E||--------------------------|--------------------------| 
B||-----1-----1-----1-----1--|--------------------------|
G||--------------------------|-----5-----5-----5-----5--| 
D||---3-----3-----3-----3----|---5-----5-----5-----5----|
A||-------3-----------3------|-3-----3-----3-----3------| 
E||-1-----------1------------|--------------------------|
   SOL   FA            DO
   Sobre los techos de zinc
E||-----------------------------------------------------| 
B||-----------------1-----1-----------------------------|
G||-----4-----4--------------------5-----5-----5-----5--| 
D||---5-----5-----3-----3--------5-----5-----5-----5----|
A||-------5-----------3--------3-----3-----3-----3------| 
E||-3-----------1---------------------------------------|
   SOL    FA           DO
   Lluvias de otoño en abril
E||-----------------------------------------------------| 
B||-----------------1-----1-----------------------------|
G||-----4-----4--------------------5-----5-----5-----5--| 
D||---5-----5-----3-----3--------5-----5-----5-----5----|
A||-------5-----------3--------3-----3-----3-----3------| 
E||-3-----------1---------------------------------------|

MI                     LAm
Tengo esa nostalgia de domingo por llover
MI                  LAm
De guitarra rota de oxidado carrusel
FA        DO     FA         SOL         Lam
Aaaaaai alelí, pooooobre de mí...


  LAm                  MI
  Yo te desnudaba para ver cómo era el mar
E||--------------------------|--------------------------| 
B||-----1-----1-----1-----1--|-----0-----0----0------0--|
G||--------------------------|--------------------------| 
D||---2-----2-----2-----2----|---2-----2----2------2----|
A||-0-----0-----0-----0------|-------2-----------2------| 
E||--------------------------|-0-----------0------------|
   FA                         DO                MI
   Y el mar se enredaba mis deseos de volar 
E||--------------------------|--------------------------| 
B||-----1-----1-----1-----1--|-------------------------0|
G||--------------------------|-----5-----5-----------1--| 
D||---3-----3-----3-----3----|---5-----5-----5-----2----|
A||-------3-----------3------|-3-----3-----3-----2------| 
E||-1-----------1------------|--------------------------|
   Lam                  MI
   Íbamos tan lejos que olvidábamos volver
E||--------------------------|--------------------------| 
B||-----1-----1-----1-----1--|-----0-----0----0------0--|
G||--------------------------|--------------------------| 
D||---2-----2-----2-----2----|---2-----2----2------2----|
A||-0-----0-----0-----0------|-------2-----------2------| 
E||--------------------------|-0-----------0------------|
   FA                  DO
   Nos traía el ángel ciego del amanecer
E||--------------------------|--------------------------| 
B||-----1-----1-----1-----1--|--------------------------|
G||--------------------------|-----5-----5-----5-----5--| 
D||---3-----3-----3-----3----|---5-----5-----5-----5----|
A||-------3-----------3------|-3-----3-----3-----3------| 
E||-1-----------1------------|--------------------------|
   SOL       FA         DO
   Y se acostaba a tus pies
E||-----------------------------------------------------| 
B||-----------------1-----1-----------------------------|
G||-----4-----4--------------------5-----5-----5-----5--| 
D||---5-----5-----3-----3--------5-----5-----5-----5----|
A||-------5-----------3--------3-----3-----3-----3------| 
E||-3-----------1---------------------------------------|
   SOL     FA        DO
   Como un gatito siamés 
E||-----------------------------------------------------| 
B||-----------------1-----1-----------------------------|
G||-----4-----4--------------------5-----5-----5-----5--| 
D||---5-----5-----3-----3--------5-----5-----5-----5----|
A||-------5-----------3--------3-----3-----3-----3------| 
E||-3-----------1---------------------------------------|

MI                     LAm
Tengo esa nostalgia de domingo por llover
MI                  LAm
De guitarra rota de oxidado carrusel
FA        DO     FA         SOL  
Aaaaaai alelí, pooooobre de mí...

Solo:

   Lam                               FA                           DO
E||-----------8--7--5---------8--7-5--------7--5-3--------7?5h6p5-3-| 
B||--------------7---5-----------7---5---------5---3--------5-----3-|
G||-7/9---9--------------7/9------------5/7-----------5/7-----------| 
D||-----------------------------------------------------------------|
A||-----------------------------------------------------------------| 
E||-----------------------------------------------------------------|
                               LAm
E||------5-5--3--1--------5-5--3------0----4----7---------4?--------| 
B||-----------------------------------------------------------------|
G||-3/5--5-5--4--2-----5--5-5--4------0----4----7---------4---------| 
D||-----------------------------------------------------------------|
A||-----------------------------------------------------------------| 
E||-----------------------------------------------------------------|


   

   LAm                   MI
   Esta noche quiero que bailemos otra vez
E||--------------------------|--------------------------| 
B||-----1-----1-----1-----1--|-----0-----0----0------0--|
G||--------------------------|--------------------------| 
D||---2-----2-----2-----2----|---2-----2----2------2----|
A||-0-----0-----0-----0------|-------2-----------2------| 
E||--------------------------|-0-----------0------------|
   FA                           DO                  MI
   La canción que el viento nos cantaba en el ayer 
E||--------------------------|--------------------------| 
B||-----1-----1-----1-----1--|-------------------------0|
G||--------------------------|-----5-----5-----------1--| 
D||---3-----3-----3-----3----|---5-----5-----5-----2----|
A||-------3-----------3------|-3-----3-----3-----2------| 
E||-1-----------1------------|--------------------------|
   LAm                       MI                 
   Ya sabrá el infierno cómo hacer para aceptar 
E||--------------------------|--------------------------| 
B||-----1-----1-----1-----1--|-----0-----0----0------0--|
G||--------------------------|--------------------------| 
D||---2-----2-----2-----2----|---2-----2----2------2----|
A||-0-----0-----0-----0------|-------2-----------2------| 
E||--------------------------|-0-----------0------------|
   FA                           DO
   Que baile en mi celda con tu sombra sin parar
E||--------------------------|--------------------------| 
B||-----1-----1-----1-----1--|--------------------------|
G||--------------------------|-----5-----5-----5-----5--| 
D||---3-----3-----3-----3----|---5-----5-----5-----5----|
A||-------3-----------3------|-3-----3-----3-----3------| 
E||-1-----------1------------|--------------------------|
   SOL  FA         DO
   Como he podido matar
E||-----------------------------------------------------| 
B||-----------------1-----1-----------------------------|
G||-----4-----4--------------------5-----5-----5-----5--| 
D||---5-----5-----3-----3--------5-----5-----5-----5----|
A||-------5-----------3--------3-----3-----3-----3------| 
E||-3-----------1---------------------------------------|
   SOL  FA           DO
   A quien me hacía soñar
E||-----------------------------------------------------| 
B||-----------------1-----1-----------------------------|
G||-----4-----4--------------------5-----5-----5-----5--| 
D||---5-----5-----3-----3--------5-----5-----5-----5----|
A||-------5-----------3--------3-----3-----3-----3------| 
E||-3-----------1---------------------------------------|

MI                     LAm
Tengo esa nostalgia de domingo por llover
MI                  LAm
De guitarra rota de oxidado carrusel
FA        DO     FA         SOL
Aaaaaai alelí, pooooobre de mí...



Final:

   LAm                               FA                          DO
E||-----------8--7--5---------8--7-5--------7--5-3--------7?5--3----| 
B||--------------7---5-----------7---5---------5---3--------5----3--|
G||-7/9---9--------------7/9------------5/7-----------5/7-----------| 
D||-----------------------------------------------------------------|
A||-----------------------------------------------------------------| 
E||-----------------------------------------------------------------|
                                 LAm
E||------5-5--3--1--------5-5--3--1-------0-1-0------------?--------| 
B||---------------------------------------------3-1-0---------------|
G||-3/5--5-5--4--2-----5--5-5--4--2-------------------2-0-2---------| 
D||-----------------------------------------------------------------|
A||-----------------------------------------------------------------| 
E||-----------------------------------------------------------------|

Comentarios del colaborador: espero que les guste... la saque a oido y suena igual a la cancion... disfrutenla cualquier duda o consulta ai esta mi correo rluengo32@gmail.com

Calificar esta versión:
Aviso: Este fichero es trabajo propio de su transcriptor y representa su interpretación personal de la canción. El material contenido en esta página es para exclusivo uso privado, por lo que se prohibe su reproducción o retransmisión, así como su uso para fines comerciales.
Más versiones de Bailando Con Tu Sombra, Abel Pintos
Bailando Con Tu Sombra
acordes
Bailando Con Tu Sombra (ver 2)
acordes
Bailando Con Tu Sombra (ver 3)
acordes
Bailando Con Tu Sombra
tablatura
Bailando Con Tu Sombra (ver 2)
tablatura
Descubre más canciones de Abel Pintos