Take On Me, A-ha (tablatura)

Autor: JuanJDA | 59447 visualizaciones



EL SOLO SE REPITE 3 VECES:
E  |  -----------------------------------------------------------------  |
B  |  -7-7-------------9-9-10s12-10-10---------------------------------  |
G  |----7-----9-9-9-------------------9-------11-11-9-9-9-11-9------  |  
D  |  -------9-9---------------------------12-12-----------------------  |
A  |  -----------------------------------------------------------------  |
E  |  -----------------------------------------------------------------  |
VERSO 1:
Bm        E    A                 D      
Talking away,  I don’t know what I’m to say
Bm             E    A               D    
I’ll say it anyway,Today’s another day to find you
Bm       E   A                   D      
Shine away, I’ll be coming for your love OK
CORO:
A    Bm D     A    Bm D
Take on me   (take on me)
A    Bm D     A    Bm D
Take me on   (take on me)
A    Bm  D
I’ll be gone
     A   Bm D
in a day or two
VERSO 2:
    Bm            E    A               D      
So, needless to say at odds and ends, but I’ll be
    Bm      E    A               D      
stumbling away slowly learning that life is OK
 Bm       E   A                           D      
Say after me, it’s so much better to be safe than sorry



SE TOCA EL SOLO DE ESTA MANERA:
ESTO SE REPITE 2 VECES.
E  |  -----------------------------------------------------------------  |
B  |  -7-7-------------9-9-10s12---------------------------------------  |
G  |  -----7-----9-9-9-------------------------------------------------  |  
D  |  -------9-9-------------------------------------------------------  |
A  |  -----------------------------------------------------------------  |
E  |  -----------------------------------------------------------------  |
A LA TERCERA VEZ SE TOCA TRES VECES EL SOLO:
E  |  -----------------------------------------------------------------  |
B  |  -7-7-------------9-9-10s12-10-10---------------------------------  |
G  |  -----7-----9-9-9-------------------9-------11-11-9-9-9-11-9------  |  
D  |  -------9-9---------------------------12-12-----------------------  |
A  |  -----------------------------------------------------------------  |
E  |  -----------------------------------------------------------------  |
VERSO 3:
Bm                E     A               D      
O, things that you say, yeah is it life or just a play
    Bm        E          A                   D      
My worries away, you’re all the things I’ve got to remember
Bm              E   A                     D     
    You shine away, I’ll be coming for you anyway
CORO:
A    Bm D     A    Bm D
Take on me   (take on me)
A    Bm D     A    Bm D
Take me on   (take on me)
A    Bm  D
I’ll be gone
     A   Bm D
in a day
EL CORO SE REPITE 2 VECES.
LA CANCION VA TERMINANDO Y EL CORO SE VA APAGANDO





Calificar esta versión:
Aviso: Este fichero es trabajo propio de su transcriptor y representa su interpretación personal de la canción. El material contenido en esta página es para exclusivo uso privado, por lo que se prohibe su reproducción o retransmisión, así como su uso para fines comerciales.
Más versiones de Take On Me, A-ha
Take On Me
acordes
Take On Me
tablatura
Descubre más canciones de A-ha