Ese Beso, 6 Voltios (bajo)

Autor: Anónimo | 37624 visualizaciones

ASI VA DESPUES DEL INTRO DE ALEXIS


D|--------------------------------------------------
G|--------------------------------------------------
A|----------------5-5-5-5-5--6-6-6-6-6---6-5-3------
E|-----6-6-6-6-6------------------------------------


ese beso q me diste.....
D|--------------------------------------------------
G|--------------------------------------------------
A|----------------5-5-5-5-5--6-6-6-6-6---6-5-3------
E|-----6-6-6-6-6------------------------------------

en la playa... 
D|---------------------------------------------------
G|---------------------------------------------------
A|---------6-6-6---------6----3-3-3--6-6-6-------3-3-3
E|---3-3-3-------6-6-6-----6---------------6-6-6------

CORO (la parte ke esta en ska)

ese beso.....                se ke aun......
D|----------------------------------------------------
G|----------------------------------------------------
A|--------6-6-6-------6-6-6-------3-3-3-------6-6-6------
E|--6-6-6--------6-6-6------3-3-3-------3-3-3------------

es el mejor recuerdo...     ke antes alguien....
D|----------------------------------------------------
G|----------------------------------------------------
A|--------6-6-6-------6-6-6-------3-3-3-------6-6-6------
E|--6-6-6--------6-6-6------3-3-3-------3-3-3----------

de ese coro sigue esto

D|-----------------------------------------------------
G|-----------------------------------------------------
A|------------------------6-6-6-6-6--3-3-3-3-3---------
E|---6-6-6-6-6--3-3-3-3-3------------------------------

luego

en la playa... 
D|---------------------------------------------------
G|---------------------------------------------------
A|---------6-6-6---------6----3-3-3--6-6-6-------3-3-3
E|---3-3-3-------6-6-6-----6---------------6-6-6------

CORO (la parte ke esta en ska)

ese beso.....                se ke aun......
D|----------------------------------------------------
G|----------------------------------------------------
A|--------6-6-6-------6-6-6-------3-3-3-------6-6-6------
E|--6-6-6--------6-6-6------3-3-3-------3-3-3------------

es el mejor recuerdo...     ke antes alguien....
D|----------------------------------------------------
G|----------------------------------------------------
A|--------6-6-6-------6-6-6-------3-3-3-------6-6-6------
E|--6-6-6--------6-6-6------3-3-3-------3-3-3----------

aca viene el punteo del inicio ke hace alexis y lo acompañan 
con esto

D|--------------------------------------------------
G|--------------------------------------------------
A|----------------5-5-5-5-5--6-6-6-6-6---6-5-3------
E|-----6-6-6-6-6------------------------------------

ese beso q me diste.....
D|--------------------------------------------------
G|--------------------------------------------------
A|----------------5-5-5-5-5--6-6-6-6-6---6-5-3------
E|-----6-6-6-6-6------------------------------------

la parte final del arpegio es asi

D|----------------------------------------------------
G|-------------------------------------------3-3------
A|----------6-6-5-5--5-------------6-6-5-5--3-3-------
E|--3-3-3--6-6---6-6--5----3-3-3--6-6---6-5-----------

D|-----------------------------------------------------
G|-------------------------------------------3-3-3-----
A|----------6-6-5-5--5-------------6-6-5-5--3-3-3------
E|--3-3-3--6-6---6-6--5----3-3-3--6-6---6-5--------6---

Fuente original: LaCuerda
Colaborador original: emilio bruce [6voltios@punkmail.com]
Calificar esta versión:
Aviso: Este fichero es trabajo propio de su transcriptor y representa su interpretación personal de la canción. El material contenido en esta página es para exclusivo uso privado, por lo que se prohibe su reproducción o retransmisión, así como su uso para fines comerciales.
Más versiones de Ese Beso, 6 Voltios
Ese Beso
acordes
Ese Beso (ver 2)
acordes
Ese Beso
tablatura
Ese Beso
bajo
Descubre más canciones de 6 Voltios