El Sol Volvera, 6 Voltios (tablatura)

Autor: Anónimo | 44962 visualizaciones

Esta kancion es reKontra facil
porsiaka E5 se toka:
                    3/--9- 
                    4/--9-
                    5/--7-
                    6/---- 
Intro: (B5  G#5) x2
 
1/-----------------------------/------------------------
2/-----------------------------/------------------------
3/-----------------------------/------------------------
4/----1-2-1---4-2-1---1---2-1--/----1-2-1---4-2-1---1----
5/-2-2-------------2-2-4-----4-/-2-2-------------2-2-4---
6/---------4-4----------44-----/---------4-4----------4442

B5
  Pasaron kosas buenas
G#5
  y no puedo rekordarlas
B5
  y tokara 
G#5 
  sobre tu korazon
B5
  i tu vida 
G#5
  es aburrida
B5
  i en tu vida  
G#5
  no hay nada nuevo

Koro:
E5                 B5                           
  Pero el sol volvera a brillar, va a brillar
F#5                        G#5              
  no estes trizte no estes mal, no estes mal 
E5                      B5                      F#5
  Las kosas buenas son para no pensar en esperar



B5
  Las kanciones de amor 
G#5
  ke antes te hacian pensar en ella 
B5
  ahora 
G#5
  solo te dan nauseas 
B5
  y la dura 
G#5
  situacion 
B5
  la solucion es
G#5
   seguir adelante

KOro:
E5  
  Porke el sol volvera a brillar..........
  .........


Punteo:

1/---------------------------------------
2/-5555-7-5-4044-5-4-2222-0-2-4-0-5-4----
3/---------------------------------------

1/------------------------------------------
2/-5555-7-5-4044-5-4-2222-0-2-4-5-22-0-5-4-2
3/------------------------------------------

E5                 B5
..Si el sol no brilla
F#5                        G#5
  Los dias de lluvia no se van
E5                     B5
  usa esa sonrisa no te dejes ganar
F#5                G#5
  la vida es dura y tienes k luchar
E5                        B5
  todo esta en ti la actitud te kambiara
           F#5       
  porke el sol,  siempre brillara
 
------------------------------------------------------
*el koro se toka con p.m.
*kualkier korrexion eskribir a mi korreo

SHAGGY ME LLEGAS AL PINCHO
CHITO; tu TAMBIEN HIJO DE PUTA
MUERAN REKONTRA POSEROS
-------------------------------------------------------

     ANOREXIA MENTAL por siempre.......

Fuente original: LaCuerda
Colaborador original: Marcos [sicness003@yahoo.com]
Calificar esta versión:
Aviso: Este fichero es trabajo propio de su transcriptor y representa su interpretación personal de la canción. El material contenido en esta página es para exclusivo uso privado, por lo que se prohibe su reproducción o retransmisión, así como su uso para fines comerciales.
Más versiones de El Sol Volvera, 6 Voltios
El Sol Volvera
tablatura
El Sol Volvera
bateria
Descubre más canciones de 6 Voltios