Cansado, 6 Voltios (acordes)

Autor: Anónimo | 45953 visualizaciones

a5a6b5csos5d5e5fsos5fsos6
n el intro Alexis lo toka bien rapido asi ke traten de praktikarlo ke es bien
facil, bueno ahi les va:

 Intro: 

 |----------------------------------------------------------|
 |----------------------------------------------------------|
 |----------------------------------------------------------|
 |----------------------------------------------------------|
 |--7-5-7-5-4----4-2-4-2-4---5-7-5-7-5-4-5---7-9-7-9-7-6----|
 |-5-----------2--------------------------------------------|



A5            F#6               D5       E5 
 Mis rekuerdos cosas akellas ke kedo atrapado 
A5             F#5  
 hizo lugar en mis latidos de koncierto 
D5               E5     
 y mis amores kedaron atras
A5             F#5           D5         E5 
 nunka pido perdon y si kieres joder yo estare esperandote


D5     A5          E5        A5      D5  A5   E5  A5
 Seran vakaciones permanetes para mi,  estoy tan kansado
D5      A5        E5     A5   D5      A5     E5    A5
 cambios a kada paso ke hare, kamino solo sin mirar atras


 |----------------------------------------------------------|
 |----------------------------------------------------------|
 |----------------------------------------------------------|
 |----------------------------------------------------------|        x2
 |--7-5-7-5-4----4-2-4-2-4---5-7-5-7-5-4-5---7-9-7-9-7-6----|
 |-5-----------2--------------------------------------------|


A5                     F#5               D5            E5
 La luna brilla y mis ojos rojos tambien prendere otro cigarro
A5                     F#5        D5         E5
 esto solo te lo digo y estare esperandote, esperandote.



D5           A5        E5      A5     D5  A5    E5 A5     
 Pero si me hace falta pedirte perdon,   estoy tan kansado
D5     A5               E5     A5       D5        A5      E5    A5  
 y las kosas ke hay las estare pensando,  kamino solo sin mirar atras



 |----------------------------------------------------------|
 |----------------------------------------------------------|
 |----------------------------------------------------------|
 |----------------------------------------------------------|        x2
 |--7-5-7-5-4----4-2-4-2-4---5-7-5-7-5-4-5---7-9-7-9-7-6----|
 |-5-----------2--------------------------------------------|

 
 |----------------------------------------------------------|
 |----------------------------------------------------------|
 |---9-7-9-7-6----6-4-6-4-6---7-9-7-9-7-6-7---9-11-9-11-9-8-|
 |-7------------4-------------------------------------------|         x2 
 |----------------------------------------------------------|
 |----------------------------------------------------------|


 [A5   B5   C#5   D5   A5] X4

D5     A5         E5          A5      D5 A5    E5  A5 
 Seran vakaciones permanentes para mi,   estoy tan kansado
D5       A6         E5    A5       D5    A5    E5  A5     
 y si me hace falta pedir perdon, por ke estoy tan kansado



 Outro:

 |----------------------------------------------------------|
 |----------------------------------------------------------|
 |---9-7-9-7-6----6-4-6-4-6---7-9-7-9-7-6-7---9-11-9-11-9-8-|
 |-7------------4-------------------------------------------|         
 |----------------------------------------------------------|
 |----------------------------------------------------------|

==================Renso_punky@hotmail.com=====================

eso es todo, es mi primera tablatura pero esta bien sakada, y si kiern alguna
aklaracion mandelo a mi mail.

Esta kancion es dedikada para todos los huevones, especialmente para ti Martin [me 
llegas al pincho] y tambien para ti Nolasco [ex Contorsion].

Un saludo para mis patas Jorge,Julio,Joseph,David,REnzo Alfaro y para su ex, ke es 
mamasita, tambien a toda la gente ke nos apoya[o sea nadie]

Fuente original: LaCuerda
Colaborador original: ReNsO ChAvEz [renso_4ever@hotmail.com]
Calificar esta versión:
Aviso: Este fichero es trabajo propio de su transcriptor y representa su interpretación personal de la canción. El material contenido en esta página es para exclusivo uso privado, por lo que se prohibe su reproducción o retransmisión, así como su uso para fines comerciales.
Más versiones de Cansado, 6 Voltios
Cansado
acordes
Cansado
bajo
Descubre más canciones de 6 Voltios