Atahualpa, 6 Voltios (bajo)

Autor: Anónimo | 36598 visualizaciones

ATAWALPA
sta kacion si ke es vieja, pero movida
y komo nadie publiko el bajo, ya pe, ahi ta
es bien facil, pero x las webas skribo
seguro ya lo saben asta por kansancio konchesumare..........

versos
|---------------------------|
|---------------------------|
|--------33333-------55555--|x4
|--33333-------55555--------|

koro
|------------------------|
|------------------------|
|-----------33333-55555--|x4
|--33333333--------------|

koro2
|----------------------|
|----------------------|
|-------3333------5-5--|x2
|--3333------5555------|

verso
koro
koro2 x4

|---------------------------|
|---------------------------|
|--------3-3-3-------5-7-5--|x3
|--3-3-3-------5-5-5--------|

|-------------------------------|
|-------------------------------|
|--------3-3-3-------5-3-2-5----|x1
|--3-3-3-------5-5-5---------3--|

Fuente original: LaCuerda
Colaborador original: Carlos [necrodead6@hotmail.com]
Calificar esta versión:
Aviso: Este fichero es trabajo propio de su transcriptor y representa su interpretación personal de la canción. El material contenido en esta página es para exclusivo uso privado, por lo que se prohibe su reproducción o retransmisión, así como su uso para fines comerciales.
Más versiones de Atahualpa, 6 Voltios
Atahualpa
acordes
Atahualpa
bajo
Descubre más canciones de 6 Voltios