Siempre, 4 Y Medio (tablatura)

Autor: david_pxndx | 32553 visualizaciones

estas son las notas q van en toda la rola

     A   F#  D   E   C#  Bm   
e|-------------------------|
B|-------------------------|
G|-----------7---9---6---4-|
D|---7---4---7---9---6---4-|
A|---7---4---5---7---4---2-|
E|---5---2-----------------|
__________________________________________________________________

intro

guitarra 1
e|----------0--------------|
B|------0--------0---------| 
G|----0---0----0---0-------|
D|-------------------------|
A|--0----------------------|
E|-------------------------|

guitarra 2
e|-0-5-4-0-7--7/5/4-|--0-5-4-0-4-|-0-5-4-7-5-4-0-|
B|------------------|------------|---------------|
G|------------------|------------|---------------|
D|------------------|------------|---------------|
A|------------------|------------|---------------|
E|------------------|------------|---------------|

e|-0-5-4-0-5--7/5/4-|--0-5-4-0-5-|---0-5-4-0-5---|-0-5-4-7-5-4-0-|
B|------------------|------------|---------------|---------------|
G|------------------|------------|---------------|---------------|
D|------------------|------------|---------------|---------------|x2
A|------------------|------------|---------------|---------------|
E|------------------|------------|---------------|---------------|
sohloh encuentren bn los cambios cuando empieza a cantar, pero ia con lo q les puse ahí ps ia se pueden guiar!! creo io!! jeje


ahora kn distorsion
A   F#  D   E  x2

verso
A    F#     D   E
siento ke jamas
te podre olvidar
por todos lo momentos
ke me has echo iorar
creo ke jamas te podre borrar
i en mi mente estaras
atormentando nada mas


CORO
C#    F#   Bm      E
porke io estaba mucho mejor sin ti
i ahora tendre ke pagar
un amor ke no me dan
porke io estaba mucho mejor sin ti
i amor tengo ke pagar por un amor ke no me dan

al final del coro dejan sonar en A

luego tocan esto:
e |----------0--------------|
B |------0--------0---------| 
G |----0---0----0---0-------| 
D |-------------------------|
A |--0----------------------|
E |-------------------------|
la vdd no stoi seguro si va así!! pero iwal se los pongo!!

luego esto:
A    F#     D   E
siempre, siempre, siempre estaras en mi mente i corazon
siempre siempre estaras en mi mente i corazon

luego siguen tocando esto:
A    F#     D   E


verso
NOTA: en el verso va kn P.M
A    F#     D   E
siento ke jamas
te podre olvidar
por todos lo momentos
ke me has echo iorar
creo ke jamas te podre borrar
i en mi mente estaras
atormentando nada mas


CORO
C#    F#   Bm      E
porke io estaba mucho mejor sin ti
i ahora tendre ke pagar
un amor ke no me dan
porke io estaba mucho mejor sin ti
i amor tengo ke pagar por un amor ke no me dan

no me dan, no me dan.........
e |-7/5/4-----5------4------4---|
B |---------------5-----5-------|


A    F#     D   E
siempre, siempre, siempre estaras en mi mente i corazon
siempre siempre estaras en mi mente i corazon


i termina en: A

Nota: x si no les suena muxo la rola usando este E: e|---|
                                                    B|---|
                           G|-9-|
                           D|-9-|
                           A|-7-|
                           E|---|

ps prueben usando este: e|---|
                        B|---|
                        G|---|                      
                        D|-2-|
                        A|-2-|
                        E|-0-|



eso es todo!! ojala les sirva mi tab!! i ps kejas, dudas, reclamos, sugerencias, felicitaciones etc.. ps scribanme a tankian_28@hotmail.com i ps kmo siempre digo!!
KE VIVA EL EMO!!!
Calificar esta versión:
Aviso: Este fichero es trabajo propio de su transcriptor y representa su interpretación personal de la canción. El material contenido en esta página es para exclusivo uso privado, por lo que se prohibe su reproducción o retransmisión, así como su uso para fines comerciales.
Más versiones de Siempre, 4 Y Medio
Siempre
acordes
Siempre
tablatura
Descubre más canciones de 4 Y Medio