No Me Arrepiento, 3 Vallejo (tablatura)

Autor: sparculs | 35506 visualizaciones



ESTA ES LA CANCION MAS CHIDA Y FACIL QUE ME SE OJALA LES QUEDE CHIDA. SOLO HAY QUE AGARRARLE EL RITMO Y QUEDA SUPER CHIDA.

e||---------------|---------------|---------------|
B||---------------|-3-------------|-------1---3---|
G||-----0---2---3-|----3---2---0--|-0--3----------|
D||-0-------------|---------------|---------------|
A||---------------|---------------|---------------|
E||---------------|---------------|---------------|


e||-1------------|---------------|----------------|
B||----3--1--3---|--3--3---3---4-|--3--3--1---1---|
G||--------------|---------------|----------------|
D||--------------|---------------|----------------|
A||--------------|---------------|----------------|
E||--------------|---------------|----------------|


e||--------------|---------------|----------------|
B||--------------|---------------|----------------|
G||-3---5--5--5--|-5--7--5--5----|-3---3---2---0--|
D||--------------|---------------|----------------|
A||--------------|---------------|----------------|
E||--------------|---------------|----------------|





Calificar esta versión:
Aviso: Este fichero es trabajo propio de su transcriptor y representa su interpretación personal de la canción. El material contenido en esta página es para exclusivo uso privado, por lo que se prohibe su reproducción o retransmisión, así como su uso para fines comerciales.
Más versiones de No Me Arrepiento, 3 Vallejo
No Me Arrepiento
acordes
No Me Arrepiento
tablatura
Descubre más canciones de 3 Vallejo