Mi Partida, 3 Vallejo (tablatura)

Autor: Anónimo | 32850 visualizaciones



NOTA:

Espero y te ayude en algo esta tab.

Si necesitas una tab en especial, escríbeme o visita...

myspace.com/alejandrolauyola

intro rasgueo

estos son los acordes pero con sus "arreglitos" pongan atención

(se repite esto entre la canción varias veces)

E||--2----2----3--3-2----|--2----0----|-------|-------|-------|
B||--3----3----3--3-3----|--3----3----|-------|-------|-------|
G||--2----2----2--2-2----|--2----2----|-------|-------|-------|
D||--0----0----0--0-0----|--0----0----|-------|-------|-------|
A||----------------------|------------|-------|-------|-------|
E||----------------------|------------|-------|-------|-------|

E||--0----0----0----0----|-----------------|-------|-------|-------|
B||--2----2----2----2----|-----------------|-------|-------|-------|
G||--2----2----2----2----|-----------------|-------|-------|-------|
D||--2----2----2----2----|-----------------|-------|-------|-------|
A||--0----0----0----0----|--0----1---------|-------|-------|-------|
E||----------------------|-----------------|-------|-------|-------|

E||--2----2----2----2----|--------------2----2----|
B||--3----3----3----3----|--------------3----3----|
G||--4----4----4----4----|--------------4----4----|
D||--4----4----4----4----|--------------4----4----|
A||--2----2----2----2----|--0----(1)----2----2--0-|
E||----------------------|------------------------|


  Q    Q    Q    Q       Q    Q    Q
-------3----3----3----|--0----0----0----|-------|-------||
-------0----0----0----|--2----2----2----|-------|-------||
-------0----0----0----|--2----2----2----|-------|-------||
-------0----0----0----|--2----2----2----|-------|-------||
-------2----2----2----|--0----0----0----|-------|-------||
-------3----3----3----|-----------------|-------|-------||



       D               A
Mi partida será algún día
       Bm             G     A
Mi partida será el ultimo adiós
       D               A
Mi partida será algún día
       Bm             G     A
Mi partida será el ultimo adiós

           D           A
No estés triste si me voy
          Bm                G   A
No estés triste si ya no estoy
      F#m
Me llevare tu recuerdo
   G
Hasta la inmensidad
     F#m
Me llevare tus besos
            G         A
Hasta la eternidad
           D           A
No estés triste si me voy
          Bm                G   A
No estés triste si ya no estoy

(solo de guitarra)

E||-------|----|----------------------------------|
B||-------|----|--2/3-3-3-3-3-3-3-3-2-2/3-3-3-3-3-|
G||-------|----|----------------------------------|
D||-------|----|----------------------------------|
A||-------|----|----------------------------------|
E||-------|----|----------------------------------|



----------------------------------|----------------------------------|
--3-2-2-2-----2-2-2-2-------------|----------------------------------|
----------4-4---------4-2---4-2---|--2-4-4-2---4-2---2-4-4-4-4-4-4/6-|
--------------------------4-----4-|----------4-----4-----------------|
----------------------------------|----------------------------------|
----------------------------------|----------------------------------|



           F#m
Que me escriban con flores
             G
Tu nombre en mi tumba
           F#m
Y que me reces un plegaria
             G    A
Como ultimo adiós


        D           A
No estés triste si me voy
          Bm                G   A
No estés triste si ya no estoy


        D           A
No estés triste si me voy
          Bm                G   A
No estés triste si ya no estoy


        D           A
No estés triste si me voy
          Bm                G   A
No estés triste si ya no estoy

final...
D  A  Bm  G  A D


NOTA:

Espero y te ayude en algo esta tab.

Si necesitas una tab en especial, escríbeme o visita...

myspace.com/alejandrolauyola





Calificar esta versión:
Aviso: Este fichero es trabajo propio de su transcriptor y representa su interpretación personal de la canción. El material contenido en esta página es para exclusivo uso privado, por lo que se prohibe su reproducción o retransmisión, así como su uso para fines comerciales.
Más versiones de Mi Partida, 3 Vallejo
Mi Partida
acordes
Mi Partida
tablatura
Descubre más canciones de 3 Vallejo