Otra Vez, 3 De Copas (tablatura)

Autor: Anónimo | 32730 visualizaciones



ESTA CANCION TIENES QUE ABRIR MUCHO LA MANOS PERO
SE ESCUCHA MUY PERRONA




INTRO
6-0---------------------------------5---------------------------
5------------------4--------------------------------0-----------
4---4----------------6-----6----------7---------------2---------
3-----1---1------------6-----8----------6----6----------4---4---
2-----------0------5-----5----------------------0-------------1-
1-------0----------0-----------------------0--------------0-----


6-0---------------------------------5---------------------------
5------------------4--------------------------------2-----------
4---4----------------6-----6----------7------------------------4
3-----1---1------------6-----8----------6----6--------4------4--
2-----------0------5-----5----------------------0-------4---4---
1-------0----------0-----------------------0--------------0-----

          Esus2
Me encontré
                                  C#m9
a quien tanto esperaba, a quien siempre soñé
                                Asus2
pero al verla a los ojos, no me pude mover
    F#m7,sus4                  Amsus2     Bsus4
me quedé con las ganas, de seguirle los pies.

       Esus2
Se me fue
                        C#m9
como se va la tarde como si fuera un tren
                          Asus2
poco a poco mis ojos la dejaron de ver
    F#m7,sus4                 Bsus4
y no se si algún día me la encuentre otra vez.


Asus2  Bsus4  Esus2
   O  -tra     vez
                                 G#m+5
Aunque sea solo un minuto quiero verla otra vez
                                 Asus2        Bsus4
pa' decirle tantas cosas que por tonto callé, ayer.

Asus2  Bsus4  Esus2
   O  -tra     vez
                           G#m+5
ojalá que se cruzara por mi vida otra vez
                                       Asus2  -  G#m+5
pa' matar esta tristeza que dejó esa mujer,
 F#m7,sus4    Bsus4   Esus2 G#m+5  Asus2  Amsus2
     de la que me enamoré,   ayer, ayer.

INTRO

Se me fue
como se va la tarde como si fuera un tren
poco a poco mis ojos la dejaron de ver
y no se si algún día me la encuentre otra vez.

Otra vez …

               6  5  4  3  2  1
Esus2          0  2  4  1  0  0
C#m9           X  4  6  8  0  0
Asus2          X  0  2  2  0  0    ó     5  7  7  6  0  0
Amsus2         X  0  2  4  1  0
Bsus4          X  2  4  4  4  0    ó     7  9  9  8  0  0
F#m7,sus4      2  X  4  2  0  0
G#m+5          4  X  6  4  0  0


Con todo cariño para mis compas barni, piru y lentium IV! de zamora
de la rondalla jaja





Calificar esta versión:
Aviso: Este fichero es trabajo propio de su transcriptor y representa su interpretación personal de la canción. El material contenido en esta página es para exclusivo uso privado, por lo que se prohibe su reproducción o retransmisión, así como su uso para fines comerciales.
Más versiones de Otra Vez, 3 De Copas
Otra Vez
acordes
Otra Vez (ver 2)
acordes
Otra Vez
tablatura
Descubre más canciones de 3 De Copas