Hermanos Guarenes - Tanganica Tanganana, 31 Minutos (tablatura)

Autor: Anónimo | 24292 visualizaciones

ESTA ES LA GUITARRA ELCTRICA QUE VA 
 DE BAJO DE LA CANCION:



  A MI ME GUS-TA EL TAN-GA-NA-NI-CA
e------------------------------------
b---1--0-----------------------------
g-0-------2----0-----0---------0-----
d- ----------------------3---2----4--

  Y YO PRE-FIE-RO EL TAN-GA-NA-NA
e------------------------------------
b---1--0-----------------------------
g-0-------2----0-----0---------0-----
d- ----------------------3---2----4--

Fuente original: LaCuerda
Colaborador original: sergio santibañez [sergiosantibaez@yahoo.com]
Calificar esta versión:
Aviso: Este fichero es trabajo propio de su transcriptor y representa su interpretación personal de la canción. El material contenido en esta página es para exclusivo uso privado, por lo que se prohibe su reproducción o retransmisión, así como su uso para fines comerciales.
Más versiones de Hermanos Guarenes - Tanganica Tanganana, 31 Minutos
Hermanos Guarenes - Tanganica Tanganana
acordes
Hermanos Guarenes - Tanganica Tanganana (ver 2)
acordes
Hermanos Guarenes - Tanganica Tanganana
tablatura
Descubre más canciones de 31 Minutos