Dinosaurio Anacleto, 31 Minutos (bajo)

Autor: Anónimo | 21493 visualizaciones

ahora veamos el bajo( de nuevo yo)

esto va en la primera estrofa
-------------------------/
---------------0---------/
-----3-3-0-2-2---0-0-----/
-3-3---------------------/

-------------------------/
-------------------------/
-----3-3-0-2-2---2-------/
-3-3-----------3---------/

( se repite dos veces en la primera y 3° estrofa)

esto va en la segunda estrofa
-0---------------------------/
---4-2-0---------------------/
---------3-2-0---2-2-2---0-0-/
---------------3-------3-----/

-0---------------------------/
---4-2-0---------------------/
---------3-2-0---2-2-2---0---/
---------------3-------3-----/
esto va en la segunda y tercera estrofa (x2 claro)

ya esta este tab no es completamente mio la primera
parte la hizo sebastian Reyes pa que voy a mentir
el coro lo saco despues ok

Fuente original: LaCuerda
Colaborador original: Raulito Tatan [donkey_jokey@hotmail.com]
Calificar esta versión:
Aviso: Este fichero es trabajo propio de su transcriptor y representa su interpretación personal de la canción. El material contenido en esta página es para exclusivo uso privado, por lo que se prohibe su reproducción o retransmisión, así como su uso para fines comerciales.
Más versiones de Dinosaurio Anacleto, 31 Minutos
Dinosaurio Anacleto
acordes
Dinosaurio Anacleto
tablatura
Dinosaurio Anacleto
bajo
Descubre más canciones de 31 Minutos