Was It A Dream, 30 Seconds To Mars (tablatura)

Autor: wilson722 | 28941 visualizaciones



[Intro/Verse] Guitar 1 [Tomo]  x4
e|--------------|--------------|--------------|--------------|
b|--------------|--------------|--------------|--------------|
g|--------------|--------------|--------------|--------------|
d|----2--3---2--|----5----5----|---2---3---2--|----5-----7---|
a|-0-0--0--0--0-|-3-3--3-3-----|0-0---0--0--0-|-3-3----5-5---|
D|--------------|--------------|--------------|--------------|
 
e|--------------|--------------|--------------|---------------|
b|--------------|--------------|--------------|---------------|
g|--------------|--------------|--------------|---------------|
d----2---3---2--|---5-----5----|----5-----5---|----9-----9/10-|
a|0-0---0---0-0-|3-3----3-3----|--------------|/7-7--7-7------|
D|--------------|--------------|-5-5----5-5---|---------------|

[Chorus] Guitar 1 [Tomo]
e|--------------|--------------|--------------|---------------|
b|--------------|--------------|--------------|---------------|
g|-5------------|-7------------|--------------|-9-------------|
d|-5------------|-7------------|-7------------|-9-------------|
a|-3------------|-5------------|-7------------|-7-------------|
D|--------------|--------------|-7------------|---------------|
 
e|--------------|--------------|--------------|---------------|
b|--------------|--------------|--------------|---------------|
g|-5------------|-7------------|--------------|---------------|
d|-5------------|-7------------|--------------|---------------|
a|-3------------|-5------------|--------------|---------------|
D|--------------|--------------|--------------|---------------|

[Verse] Guitar 1 ]  x4 
e|--------------|--------------|--------------|---------------|
b|--------------|--------------|--------------|---------------|
g|--------------|--------------|--------------|---------------|
d|---2---3---2--|----5-----5---|----2--3--2---|----5-----7----|
a|0-0---0---0-0-|3-3----3-3----|-0-0--0--0--0-|3-3----5-5-----|
D|--------------|--------------|---------------|--------------|
 
e|--------------|--------------|---------------|--------------|
b|--------------|--------------|---------------|--------------|
g|--------------|--------------|---------------|--------------|
d|---2---3---2--|---5-----5----|---5------5----|----9----9/10-|
a|0-0--0---0--0-|3-3---3-3-----|---------------|/7-7--7-7-----|
D|--------------|--------------|5-5----5-5-----|--------------|

[Chorus 2] Guitar 1 
e|--------------|--------------|------------------------------|
b|--------------|--------------|---------------|--------------|
g|-5------------|-7------------|---------------|-9------------|
d|-5------------|-7------------|-7-------------|-9------------|
a|-3------------|-5------------|-7-------------|-7------------|
D|--------------|--------------|-7-------------|--------------|
 
e|--------------|--------------|---------------|--------------|
b|--------------|--------------|---------------|--------------|
g|-5------------|-7------------|---------------|--------------|
d|-5------------|-7------------|---------------|--------------|
a|-3------------|-5------------|---------------|--------------|
D|--------------|--------------|---------------|--------------|

[Bridge] Guitar 1  x4 
e|--------------|--------------|---------------|--------------|
b|--------------|--------------|---------------|--------------|
g|--------------|--------------|-7-------------|-7------------|
d|---2---2---2--|--2--2---2--2-|-5---X8--------|-5---x8-------|
a|-0-0-0-0-0-0-0|-0-0-0-0-0-0-0|-5-------------|-5------------|
D|--------------|--------------|---------------|--------------|

[Chorus 2] Guitar 1 
e|--------------|--------------|---------------|--------------|
aca tienen a was it is dream

b|--------------|--------------|---------------|--------------|
g|-5------------|-7------------|---------------|-9------------|
d|-5------------|-7------------|-7-------------|-9------------|
a|-3------------|-5------------|-7-------------|-7------------|
D|--------------|--------------|-7-------------|--------------|
 
e|--------------|--------------|---------------|--------------|
b|--------------|--------------|---------------|--------------|
g|-5------------|-7------------|-2-------------|-2------------|
d|-5------------|-7------------|-2-------------|-2------------|
a|-3------------|-5------------|-0-------------|-0------------|
D|--------------|--------------|---------------|--------------|

e|--------------|--------------|---------------|--------------|
b|--------------|--------------|---------------|--------------|
g|-5------------|-7------------|---------------|-9------------|
d|-5------------|-7------------|-7-------------|-9------------|
a|-3------------|-5------------|-7-------------|-7------------|
D|--------------|--------------|-7-------------|--------------|
 
e|--------------|--------------|---------------|--------------|
b|--------------|--------------|---------------|--------------|
g|-5------------|-7------------|-5-------------|-7------------|
d|-5------------|-7------------|-5-------------|-7------------|
a|-3------------|-5------------|-3-------------|-5------------|
D|--------------|--------------|---------------|--------------|

listo

dudas:wilson_7.22@hotmail.com





Calificar esta versión:
Aviso: Este fichero es trabajo propio de su transcriptor y representa su interpretación personal de la canción. El material contenido en esta página es para exclusivo uso privado, por lo que se prohibe su reproducción o retransmisión, así como su uso para fines comerciales.
Más versiones de Was It A Dream, 30 Seconds To Mars
Was It A Dream
acordes
Was It A Dream (ver 2)
acordes
Was It A Dream
tablatura
Descubre más canciones de 30 Seconds To Mars