Ya No Sos Igual, 2 Minutos (tablatura)

Autor: luca150598 | 45386 visualizaciones



intro:


|--------------------------------------------|
|--1-----------8-----------------------------|
|-----------------------2-----------10-------|
|--------------------------------------------|
|--------------------------------------------|
|--------------------------------------------|

despues en la cancion: 

|--------4*---6*---2*-----------|
|--4*----6*---8*---4*----4------|
|--6*----6*---8*---4*----6------|
|--6*--------------------6------|
|-------------------------------|
|-------------------------------|





Calificar esta versión:
Aviso: Este fichero es trabajo propio de su transcriptor y representa su interpretación personal de la canción. El material contenido en esta página es para exclusivo uso privado, por lo que se prohibe su reproducción o retransmisión, así como su uso para fines comerciales.
Más versiones de Ya No Sos Igual, 2 Minutos
Ya No Sos Igual
acordes
Ya No Sos Igual (ver 2)
acordes
Ya No Sos Igual
tablatura
Descubre más canciones de 2 Minutos