Le Grange, Zz Top (tablatura)

Autor: el-*roo | 15641 visualizaciones

6|---------------------|
5|-2-2--2-2-2---2-----0|
4|-2-2--2-2-2---2-0h2-0|
3|---------------------|
2|---------------------|
1|---------------------|

y cuando va mas rapido 

6|---------------------|
5|---------------------|
4|-2-2--2-2-2---2-----0|
3|-2-2--2-2-2---2-0h2-0|
2|---------------------|
1|---------------------|


es la primera que hago

espero que les caiga bien
Calificar esta versión:
Aviso: Este fichero es trabajo propio de su transcriptor y representa su interpretación personal de la canción. El material contenido en esta página es para exclusivo uso privado, por lo que se prohibe su reproducción o retransmisión, así como su uso para fines comerciales.