Entra, Zona 7 (bajo)

Autor: Anónimo | 33966 visualizaciones



Otra ves colaboro pero ahora con esta chida rola de estos cuates, 
costó sacarla pero será de bendición es una de las mas chidas de 
Zona traten de oirla primero para que puedan adaptar bien las 
figuras pero en fin. Se que podran hacerlo.


           //INTRO://
E ------2---------------------------------0--1-1-2-----
A --2------2--------2------4-4--2-4--------------------
D -------------0-0-----0-------------------------------


E -----2---------------------------------0--1-1-2----------------------
A -2------2--------2-----4-4--2-4--------------------------------------
D ------------0-0-----0--------------------------------0---0-0---0--0-0

      //CORO://
E ---------------------------------------------------------------
A -----2----2-----------------------2----------------------------
D ---------------------------------------2--2--2--0-2-0-2--------
G ----------------4--2--4--2--4----------------------------------

       ///PUENTE:///
A --------------------------------------------------
D -------0---0---0--0-----0-0-0-2--2--2----2-4------


    Alguna duda o arreglo que le quieran hacer no duden en contactarme
ya saben. y dejen que Jesús entre en lo mas profundo de tu ser  GOD BLESS YOU !!!





Calificar esta versión:
Aviso: Este fichero es trabajo propio de su transcriptor y representa su interpretación personal de la canción. El material contenido en esta página es para exclusivo uso privado, por lo que se prohibe su reproducción o retransmisión, así como su uso para fines comerciales.