Cómo Me Ves?, Zona 7 (bajo)

Autor: Anónimo | 38276 visualizaciones



    Hola; en esta ocaciÓn colaboro con esta rola que esta gruesa,
pues la toca Emmanuel Espinoza. Bueno el tab que les doy es lo 
mas parecido que pude sacar, pero vamos mejor al grano. Aquí les va...




        
::Intro::

E |---2-------------------2--2-------------------2--2------------------2--2----------------
A |------2------2s4-------------2--------2s4------------2-------2s4------------2-----2s4---
D |---------4------------------------4----------------------4---------------------4--------
G |----------------------------------------------------------------------------------------
B |----------------------------------------------------------------------------------------




E |----5--5-------5-----5--5-------5-----5--5-------5------5--5-------5---------------------------------------------------
A |------------------------------------------------------------------------------5-5-5-5---5-5-5-5-----5-5-5-5---5-5-5-5--
D |-----------7-----------------7----------------7-----------------7------------------------------------------------------
G |-----------------------------------------------------------------------------------------------------------------------
B |-----------------------------------------------------------------------------------------------------------------------




E |------------------------------------------------------------------------------------------------------------
A |---5s9-9-9-9---9-9-9---9s4-4-4-4---4-4-4-4----5-5-5-5---5-5-5-5---5-5--7--5----5-5--7--5-----7--7--7----5---
D |------------------------------------------------------------------------------------------------------------
G |------------------------------------------------------------------------------------------------------------
B |------------------------------------------------------------------------------------------------------------


::Verso::                         ::4 Veces::

E |---2--2----------------2--2-----------------2--2------------------2--2---------------
A |---------2------2s4-----------2-------2s4----------2-------2s4-----------2------2s4--
D |------------4---------------------4--------------------4---------------------4-------
G |-------------------------------------------------------------------------------------
B |-------------------------------------------------------------------------------------


::Coro::

E |---5--5------5-----5--5-------5-----5--5-------5-----5--5-------5---------------------------------------------
A |------------------------------------------------------------------------5-5-5-5---5-5-5-5---5-5-5-5--5-5-5-5--
D |----------7---------------7----------------7----------------7-------------------------------------------------
G |--------------------------------------------------------------------------------------------------------------
B |--------------------------------------------------------------------------------------------------------------




E |--------------------------------------------------------------------------------------------------------
A |---5s9-9-9-9--9-9-9---9s4-4-4-4---4-4-4-4---5-5-5-5---5-5-5-5----5-5--7---5----5-5---7---5----7-7-7--5--
D |--------------------------------------------------------------------------------------------------------
G |--------------------------------------------------------------------------------------------------------
B |--------------------------------------------------------------------------------------------------------


::Verso::                         ::Solo bajo::

E |-------------0---2-----------------0--2-----------------0--2-----------------0--2--
A |--2---4----------------2---4----------------2---4----------------2---4-------------
D |-----------------------------------------------------------------------------------
G |-----------------------------------------------------------------------------------
B |-----------------------------------------------------------------------------------


::Puente::

E |----2----------------------0---2---0------0------------------------0---2---0---
A |--------2--4-----------------------------------0---2---3---5-------------------
D |----------------0--2-----------------------------------------------------------
G |-------------------------------------------------------------------------------
B |-------------------------------------------------------------------------------


::Final::

E |------2-----2------2-----2s14---------
A |--------------------------------------
D |--------------------------------------
G |--------------------------------------
B |--------------------------------------

         En esta canción en lo particular la toco con slaps; se oye
bien; solo que Emmanuel le hace de una manera la cual no la pude hacer
pero espero les sirva y ya saben dudas o aclaraciones solo escríbanme.



                       G O D  B L E S  Y O U  ! ! !





Calificar esta versión:
Aviso: Este fichero es trabajo propio de su transcriptor y representa su interpretación personal de la canción. El material contenido en esta página es para exclusivo uso privado, por lo que se prohibe su reproducción o retransmisión, así como su uso para fines comerciales.