Ahora Sirvo A Cristo, Zona 7 (bajo)

Autor: Anónimo | 36218 visualizaciones



E  (-------------------------------------------------------------------------------------------------------------------)
A  (---5--7--5--7--5--7--5--7--5--7--5--7-----------------------------------5------5--2-----2--7--7--7--7--7--7--7--7--)
D  (---------------------------------------4--5--4--5--4--5--4--5--4--5--4---------------------------------------------)
G  (---------------------------------------------------------------------------7-7------4-4----------------------------)

  ::VERSO::
                  ::2::VECES::

E  (---------------------------------5-----------3-----------3---)
A  (---7-----------7--5-----------5--------7-----------5---------)
D  (---------9--------------7-----------7-----7-----5-----5------)
G  (------9-----9--------7-----7---------------------------------)



  ::PRE::CORO::

E  (----------------------- 
A  (--5--5--5--5--5--5--5--
D  (-----------------------
G  (-----------------------


   EL CORO ES LA MISMA FIGURA DEL del inicio 
   

    LO QUE METES EN EL SOLO DE GITARRA 

                   ::2 VECES:: 

E  (--2--2-2--2-2--5-----5--2--2-2-------------------------)
A  (------------------2--------------4-4--5-5-5--2-2--4----)
D  (-------------------------------------------------------)
G  (-------------------------------------------------------)
 EN LA SEGUNDA BUELTA DES PUES DE C# SEVA A  ::D::

  ////CORO////  



ESO ES TODO ALGUNA DUDA O COMENTARIO ME MANDAN UN MAIL         
BYE...................





Calificar esta versión:
Aviso: Este fichero es trabajo propio de su transcriptor y representa su interpretación personal de la canción. El material contenido en esta página es para exclusivo uso privado, por lo que se prohibe su reproducción o retransmisión, así como su uso para fines comerciales.