Fín De Semana, Zoe (acordes)

Autor: Anónimo | 30561 visualizaciones

ambcfg


De: Un fan Colombiano de ZOÉ "CAMO"   Disfrútenla.



Intro:

          C                  F
e|-------------------|-------------------------|
B|-10-8--8-8-8-8-8-8-|-------------------------|
G|-------------------|-9-10--10-10-10-10-10-10-|
D|-------------------|-------------------------|
          C                  F
e|-------------------|-8------------7-8----7-8-|
B|-10-8--8-8-8-8-8-8-|-------------------------|
G|-------------------|-------------------------|
D|-------------------|-------------------------|


C                   F
Nubes negras vienen y se van,
C               F
Traficando soledad.
C                F
Besos, risas y cenizas,
C                 F
Flagelando oscuridad.

C F X2

C                   F
Se rinden las horas a tus pies,
C                 F
Convulsionan y se van.

Coro:
          C        F           Am
Quiero un fin de semana en el cielo,
     C         F       Am
Desvelarme bailando contigo.
          C        F           Am
Quiero un fin de semana en el cielo,
    C             F        Am
Quiero volverte a ver otra vez.

C F X2

C                   F
Nubes negras vienen y se van,
C                F
Laberintos de papel mache.

G F B


Coro:
          C        F           Am
Quiero un fin de semana en el cielo,
     C         F       Am
Desvelarme bailando contigo.
          C        F           Am
Quiero un fin de semana en el cielo,
    C             F        Am
Quiero volverte a ver otra vez.


C F X4





Calificar esta versión:
Aviso: Este fichero es trabajo propio de su transcriptor y representa su interpretación personal de la canción. El material contenido en esta página es para exclusivo uso privado, por lo que se prohibe su reproducción o retransmisión, así como su uso para fines comerciales.