Ella, Zmoky (tablatura)

Autor: skrak | 31532 visualizaciones

Esta cancion seria mas facilde tocar con notas y las notas son RE ,SIm ,SOL ,LA
|----------2-----------2-------------------------|
|-------3-----3-----3-----3----------------------|
|------------------------------------------------|
|----0-----------0-------------------------------|
|------------------------------------------------|
|------------------------------------------------|

|----------2-----------2-------------------------|
|------------------------------------------------|
|-------4-----4-----4-----4----------------------|
|----2-----------2-------------------------------|
|------------------------------------------------|
|------------------------------------------------|

|----------3-----------3-------------------------|
|-------3-----3-----3-----3----------------------|
|------------------------------------------------|
|----0-----------0-------------------------------|
|------------------------------------------------|
|------------------------------------------------|

|----------0-----------0-------------------------|
|------------------------------------------------|
|-------2-----2-----2-----2----------------------|
|----2-----------2-------------------------------|
|------------------------------------------------|
|------------------------------------------------|
Calificar esta versión:
Aviso: Este fichero es trabajo propio de su transcriptor y representa su interpretación personal de la canción. El material contenido en esta página es para exclusivo uso privado, por lo que se prohibe su reproducción o retransmisión, así como su uso para fines comerciales.