Kaña, Zirrosis (tablatura)

Autor: Anónimo | 44620 visualizaciones



@Tab by Warrior
http://rockk.net

                              

                              ZIRROSIS -Kaña-
                                        ---------------


Intro(los akordes son los del estribillo) 
-------
E|--------------------------------------------------------------|
B|-------4-----------------5p4p5-5-5-5-7-5-4-5-----------4-5-7--|
G|-4-4-6---6-4-3-------3-----------------------6-6-6-6-6--------|
D|---------------6-6-6---6--------------------------------------|
A|--------------------------------------------------------------|
E|--------------------------------------------------------------|  

E|-----------------------------------------------------------|
B|-------4-----------------5p4p5-5-5-5-7-5-4-5--7-7-7p10-7---|
G|-4-4-6---6-4-3-------3-------------------------------------|
D|---------------6-6-6---6-----------------------------------|
A|-----------------------------------------------------------|
E|-----------------------------------------------------------|  


Estrofa
-------

B
Una noche komo tantas
C#
de las k en kualkier ciudad
E
llegamos a una diskoteka
F#
nos chapan el ultimo bar

B
Sin mas k asomar la jeta
C#
un gorila me sujeta
E
y me dice kortesmente
F#
donde vas kon esas greñas

G#  G#  G#      F#
Yo le digo k pa dentro
         B    A#    G#
y el me dice k pa fuera
G#  G#  G#      F#
aki xaval para entrar
         B    A#    G#
se exige media etiqueta

F#                  D#                  
El nos saka por la puerta
F#                  D#                  
y yo le mando a la mierda
F#
sale kon kuatro o zinko mas
     B       A#     G#        E-F#  E-F# 
y ya se akabo la fiesta

Estribillo:
----------
B            A#            G#
Kaña a los k nos kieren pisar
E6                   D#          C#
por nuestra forma de vestir o de pensar
B                           G#
solo de ignoracia se alimenta tu intoleracion
E6           D#             C#
como necios viviran y moriran



                  Si no te aklaras kon algo,tienes dudas,sugerencias,krees ke esta mal 
                        o simplemente te apeteze enviar un e-mail aki estoy
                                    
                                    <warrior_g@teleline.es>
                  
                  o visita la sekzion RockK ZOne de mi peich
                                       
                                    <http://rockK.net>
                  ¡Hasta otra!
                                                            Warrior_





Calificar esta versión:
Aviso: Este fichero es trabajo propio de su transcriptor y representa su interpretación personal de la canción. El material contenido en esta página es para exclusivo uso privado, por lo que se prohibe su reproducción o retransmisión, así como su uso para fines comerciales.