Siete Bandoleros, Zingaro (tablatura)

Autor: Anónimo | 36137 visualizaciones



 **Dedicado al Eixampem**


-Cejilla en el 3r traste:
Empieza con arpegios de Mim

E:----3-2-3-2-0--------------3-2-3-2-0-----------0-5-4-5-3-2-0-RE7-
B:-0-------------4-Mim-----0-----------4-Lam-----------------------
G:-----------------------------------------------------------------
D:-----------------------------------------------------------------
A:-----------------------------------------------------------------
E:-----------------------------------------------------------------


E:----7-5-7-5-3-----3------8-7-8-7-5-4-5-----10-8-10-8-7-5-7-------
B:-3-------------7-------------------------------------------------
G:-----------------------------------------------------------------
D:-----------------------------------------------------------------
A:-----------------------------------------------------------------
E:-----------------------------------------------------------------


E:-5-3-5-3-2----------------------
B:-----------4--MIm---------------
G:--------------------------------
D:--------------------------------
A:--------------------------------
E:--------------------------------

**Sigue con arpegios


MIm
Tres molinos en el camino,
                 LAm
siete bandoleros bajan.
                   SI Mayor
De los alcores del viso,
                          MIm
con sus hembras entre las ancas.
MIm
Catites rojos, pañuelos,
                  LAm
patillas de bocas anchas.
                    SI Mayor
Ellas navaja en las ligas,
                    MIm
ellos su faca en la faja.

**Apartir de aqui ritmo de rumba

                     SOL
Ellas la rabia en sus ojos,
                   RE7
ellos armas en sus espaldas.
                   DO
De los alcores del viso,
      SI7               MIm
siete, siete bandoleros bajan.


Siete caballos caretos,
                 LAm
siete retacos de plata.
                 SI Mayor
Traca,Buche,Juan,Repiso,
                 MIm
Sata,Blas y Mala facha.

                SOL
Siete caballos caretos
                    RE7
los siete en ellos llevavan
                  DO
siete chupas de caireles
     SI7                MIm
siete,siete mantas jeresanas.

**Otra vez el solo de guitarra

             SOL
Echa vino montañés
                    RE7
que lo paga Luis de Vargas,
                     DO
el que a los pobres socorre
       SI7                MIm
y a los, y a los ricos avasalla.
                    SOL
Ese es nuestro jefe hermano
                   RE7
el capitan Luis de Vargas,
                    DO
el que a los pobres socorre,
       SI7               MIm
y a los, y a los ricos avasalla.


**Termina con el solo de guitarra

No es perfecta pues nunca he tenido clases de guitarra pero cada uno
puede acabar de perfeccionar. Espero haver sido de ayuda. Saludos!





Calificar esta versión:
Aviso: Este fichero es trabajo propio de su transcriptor y representa su interpretación personal de la canción. El material contenido en esta página es para exclusivo uso privado, por lo que se prohibe su reproducción o retransmisión, así como su uso para fines comerciales.