Tan Cerca Y Tan Lejos, Zero Balas (tablatura)

Autor: wilmerjk3 | 35213 visualizaciones



Canción:	Tan Cerca Y Tan Lejos
Banda:		Zero Balas
Afinación:	Standard (EADGBe)
Tabhecha por:	Sito!!	


Bueno, este es mi primer tab asi que tiene unos herrores por ahi ya que hay partes en las 
cuales no oigo tan bien....por favor todos los insultos a: "wilmerjk3@hotmail.com" 
Ojalá les sirva. Además es el unico tab de esta canción hasta ahora creo...
al menos yo no he encontrado otro xD 
OK. La canción dice así:

INTRO 1: (Sonido Limpio)
Guitarra 1:								 
 e|-------------------------------------------------------------------|  
 B|--------4---2-------------------------4---2------------------------|  
 G|----4-----0--------0---2---0------4-----0--------------------------|  
 D|-5----5------------------------5----5------------------------------|  
 A|-------------------------------------------------------------------|  
 E|----------------3----3---3-------------------3~--------------------|  
									 
Guitarra 2:								 
 e|---------------------------------------------3---------------------|  
 B|-------3---------------3-------------3-------3---------------------|  
 G|---2---------------0-------------2-----------0---------------------|  
 D|-0---0---------------0---------0---0---------0---------------------|  
 A|-------------------------------------------------------------------|  
 E|----------------3--------------------------------------------------|  
                                               (G)			 

INTRO 2: (Con Distorsión)
Guitarra 1:
 e|---------------------------------------------------------------------------------------------|
 B|---------------------------------------------------------------------------------------------|
 G|-9/11-111111-9-7-9-7-6-7--11/12121212/111111\9-9-7-9--9/11-111111-9-7-9-7-7/9-4--4--4-44-4-4~|
 D|-x-x--x-x-x--x-x-x-x-x-x--x--x-x-x-x--x-x-x--x-x-x-x--x-x--x-x-x--x-x-x-x-x-x-x--x--x-xx-4-4~|
 A|-7/9--9-9-9--7-5-7-5-4-5--9 /10101010/9-9-9 \7-7-5-7--7/9--9-9-9--7-5-7-5-5/7-2--2--2-22-2-2~|
 E|---------------------------------------------------------------------------------------------|
    (Es un "|-9x11--|" porsiacaso)

Guitarra 2:
 e|---------------------------------------------------------------------------------------------|
 B|---------------------------------------------------------------------------------------------|
 G|-6/7-7-7-7-xx-4-x-4-4-4-------------------------------6/7-7-7-7-xx-4-x-4-4-4-----------------|
 D|-6/7-7-7-7-xx-4-x-4-4-4---4/5-5-5-5-xx-5-x-5-5-5------6/7-7-7-7-xx-4-x-4-4-4--5--5--5-55-5-5~|
 A|-4/5-5-5-5-xx-2-x-2-2-2---4/5-5-5-5-xx-5-x-5-5-5------4/5-5-5-5-xx-2-x-2-2-2--5--5--5-55-5-5~|
 E|--------------------------2/3-3-3-3-xx-3-x-3-3-3------------------------------3--3--3-33-3-3~|

VERSO 1: (Sonido Limpio)
Guitarra 1:
 e|-----2-0--2--------3-2--0--2-----2-0--2--------3-2-2---0------2-0--2--------3-2--0--2------2-0--2--------3-2-2-2/3\2---|
 B|---3---------3---3-------------3---------3---3-------3------3---------3---3--------------3---------3---3-------------3-|
 G|-2-------------0-------------2-------------0--------------2-------------0--------------2-------------0-----------------|
 D|-----------------------------------------------------------------------------------------------------------------------|
 A|-----------------------------------------------------------------------------------------------------------------------|
 E|-----------------------------------------------------------------------------------------------------------------------|

Guitarra 2: Tocar los acordes D y G al son de la canción y jugar con el Pal Mute. Tratar de que resalten 
            solo las tres primeras cuerdas

	 e|-2-|    e|-3-| 
	 B|-3-|    B|-3-|
	 G|-2-|    G|-0-|
	 D|-0-|    D|-0-| 
	 A|-0-|    A|-2-|
	 E|-0-|    E|-3-|
	   (D)       (G)

    O tambien pueden trocar asi:
				__      __
 	 e|-2-|    e|-3-|      /  \    /  \
	 B|-3-|    B|-3-|      \__/    \__/
	 G|-2-|    G|-0-|          O  O
	 D|---|    D|---|      _____________
	 A|---|    A|---|      \           /
	 E|---|    E|---|       \_________/
	   (D)       (G)  
            
PRE-CORO 1: (Con Distorsión)
Ambas guitarras:
					 |(x16)|
 e|--------------------------------------|-----|
 B|--------------------------------------|-----|
 G|--------------------4--4-4xxx---------|-----|
 D|-7--7-7-xxx-5-5xxx--4--4-4xxx-5-5-xxx-|-7---|
 A|-7--7-7-xxx-5-5xxx--2--2-2xxx-5-5-xxx-|-7---|
 E|-5--5-5-xxx-3-3xxx------------3-3-xxx-|-5---|

CORO: (Con Distorsión)
Guitarra 1:
   |--------------------------(x2)---------------------------------|
 e|--------0---2---------0---------------0---2---------2-2-2/3-2----|
 B|----3-----3-------3--------3------3-----3-------3-------------3--|
 G|-2----2--------0----2----2-----2----2--------0----2--------------|
 D|-----------------------------------------------------------------|
 A|-----------------------------------------------------------------|
 E|-----------------------------------------------------------------|

Guitarra 2:
   |--------------------------(x2)--------------------------------|
 e|----------------------------------------------------------------|
 B|----------------------------------------------------------------|
 G|-7--7-77-77-77-----------------7--7-77-77-77--------------------|
 D|-7--7-77-77-77-5--5-5-55-55-55-7--7-77-77-77-5--5-5-55-55-5555--|
 A|-5--5-55-55-55-5--5-5-55-55-55-5--5-55-55-55-5--5-5-55-55-5555--|
 E|---------------3--3-3-33-33-33---------------3--3-3-33-33-3355--|

 Aquí se repite el "INTRO 2" (Con Distorsión) y luego se sigue con esto:

VERSO 2: (Con Distorsión)
Ambas guitarras:
   |------------------------(Palm Mute)---------------------------|
   |------------------------(x2)----------------------------------|
 e|----------------------------------------------------------------|
 B|----------------------------------------------------------------|
 G|-7-7-7-7-7-7-7-7--4-4-4-4-4-4-4---------------------------------|
 D|-7-7-7-7-7-7-7-7--4-4-4-4-4-4-4-5-5-5-5-5-5-5-5--7-7-7-7-7-7-7--|
 A|-5-5-5-5-5-5-5-5--2-2-2-2-2-2-2-5-5-5-5-5-5-5-5--7-7-7-7-7-7-7--|
 E|--------------------------------3-3-3-3-3-3-3-3--5-5-5-5-5-5-5--|

Luego... (Esta parte la saqué al oído asi que si esta mal porfavor me la hacen saber)
Guitarra 1:
   |------------------------(Palm Mute)---------------------------------------------------------|
 e|----------------------------------------------------------------------------------------------------------|
 B|----------------------------------------------------------------------------------------------------------|
 G|-1111111111111111-7-7-7-7-7-7-7--------------------------------1111111111111111-7-7-7-7-7-7-7-------------|
 D|-1212121212121212-9-9-9-9-9-9-9-9-9-9-9-9-9-9-9--111111111111111212121212121212-9-9-9-9-9-9-9-9--9--9--9--|
 A|--------------------------------1010101010101010-12121212121212-------------------------------10-10-10-10-|
 E|----------------------------------------------------------------------------------------------------------|

Guitarra 2:
   |------------------------(Palm Mute)---------------------------------------------------------|
 e|----------------------------------------------------------------------------------------------------------|
 B|----------------------------------------------------------------------------------------------------------|
 G|-7-7-7-7-7-7-7-7--4-4-4-4-4-4-4--------------------------------7-7-7-7-7-7-7-7--4-4-4-4-4-4-4-------------|
 D|-7-7-7-7-7-7-7-7--4-4-4-4-4-4-4-5-5-5-5-5-5-5-5--7-7-7-7-7-7-7-7-7-7-7-7-7-7-7--4-4-4-4-4-4-4-5--5--5--5--|
 A|-5-5-5-5-5-5-5-5--2-2-2-2-2-2-2-5-5-5-5-5-5-5-5--7-7-7-7-7-7-7-5-5-5-5-5-5-5-5--2-2-2-2-2-2-2-5--5--5--5--|
 E|--------------------------------3-3-3-3-3-3-3-3--5-5-5-5-5-5-5--------------------------------3--3--3--3--|

Ambas guitarras:
 e|-xx-xx-xx-|
 B|-xx-xx-xx-|
 G|-xx-xx-xx-|
 D|-xx-xx-xx-|
 A|-xx-xx-xx-|
 E|-xx-xx-xx-|

PRE CORO 2: (Con Distorsión)
Guitarra 1:
 e|----------------------------------------------------------|
 B|-------------------------------------------------5-3-5-3~-|
 G|-6--6-6xx-7-7xxx-6/7-7-7-7-7xx-7-7-777--------------------|
 D|-4--4-4xx-7-7xxx-6/7-7-7-7-7xx-7-7-777-7-9-7-9-7----------|
 A|-4--4-4xx-5-5xxx-4/5-5-5-5-5xx-5-5-555-7------------------|
 E|---------------------------------------5------------------|

Guitarra 2:
 e|----------------------------------------------------------|
 B|----------------------------------------------------------|
 G|-6--6-6xx-7-7xxx-6/7-7-7-7-7xx----------------------------|
 D|-4--4-4xx-7-7xxx-6/7-7-7-7-7xx-5-55555/777777777777777----|
 A|-4--4-4xx-5-5xxx-4/5-5-5-5-5xx-5-55555/777777777777777----|
 E|-------------------------------3-33333/555555555555555----|

Aquí se repite el "CORO" (Con Distorsión) y luego viene lo más esperado, el solo!!

SOLO: (Con Distorsión)
Guitarra 1:
 e|-----------------0----0------------5-----5-7-----4/55555/77777/9999999/1010~-|
 B|-5/7~7\5-5~-3-3-3--3-3--3------7-8---8-7-----8-------------------------------|
 G|-------------4-4--4-4--4---6/7--7-7-7-7-7-7-7-7------------------------------|
 D|-----------------------------------------------------------------------------|
 A|-----------------------------------------------------------------------------|
 E|-----------------------------------------------------------------------------|

Guitarra 2:
 e|-------------------------------------------------------------------|
 B|-------------------------------------------------------------------|
 G|-3/4444x---------3/4444x---------3/4444x-----------------44444/66666/7777~---|
 D|-3/4444x-5x5-5-5-3/4444x-5x5-5-5-3/4444x-5x5-5-5-5/77777-44444/66666/7777~---|
 A|-1/2222x-5x5-5-5-1/2222x-5x5-5-5-1/2222x-5x5-5-5-5/77777-22222/44444/5555~---|
 E|---------3x3-3-3---------3x3-3-3---------3x3-3-3-3/55555---------------------|

Luego se oye tocar estos acordes Sin Distorsión: (Tocar al ritmo de la canción)
          |-x7-|-x7-|-x7-|
	 e|--2-|--3-|--2-|-3~-| 
	 B|--3-|--3-|--3-|-3~-|
	 G|--2-|--0-|--2-|-0~-| 
	 D|----|----|----|----| 
	 A|----|----|----|----|
	 E|----|----|----|----|
	    (D)  (G)  (D)  (G)

 Aquí se repite el "CORO" (Con Distorsión) y luego el "INTRO 2" (Con Distorsión) pero modificado de esta forma:

INTRO 2: (Con Distorsión)
Guitarra 1:
 e|---------------------------------------------------------------------------------------------------------------|
 B|---------------------------------------------------------------------------------------------------------------|
 G|-9/11-111111-9-7-9-7-6-7--11/12121212/111111\9-9-7-9--9/11-111111-9-7-9-7-7/9-4--4-4/1616161616/18181818/1919~-|
 D|-x-x--x-x-x--x-x-x-x-x-x--x--x-x-x--x-x-x-x--x-x-x-x--x-x--x-x-x--x-x-x-x-x-x-x--x-x-x-x-x-x-x--x-x-x-x--x-x---|
 A|-7/9--9-9-9--7-5-7-5-4-5--9 /10101010/9-9-9 \7-7-5-7--7/9--9-9-9--7-5-7-5-5/7-2--2-2/1414141414/16161616/1717~-|
 E|---------------------------------------------------------------------------------------------------------------|
    (Es un "|-9x11--|" porsiacaso)

Guitarra 2:
 e|-----------------------------------------------------------------------------------------------------------|
 B|-----------------------------------------------------------------------------------------------------------|
 G|-6/7-7-7-7-xx-4-x-4-4-4-------------------------------6/7-7-7-7-xx-4-x-4-4-4---------------4444/66666/7-7~-|
 D|-6/7-7-7-7-xx-4-x-4-4-4---4/5-5-5-5-xx-5-x-5-5-5------6/7-7-7-7-xx-4-x-4-4-4--4/5-5-5-5-xx-4444/66666/7-7~-|
 A|-4/5-5-5-5-xx-2-x-2-2-2---4/5-5-5-5-xx-5-x-5-5-5------4/5-5-5-5-xx-2-x-2-2-2--4/5-5-5-5-xx-2222/44444/5-5~-|
 E|--------------------------2/3-3-3-3-xx-3-x-3-3-3------------------------------2/3-3-3-3-xx-----------------|

Guitarra 1:								 
 e|-------------------------------------|  
 B|--------4---2-------------4------2~--|  
 G|----4-----0--------4---------0-------|  
 D|-5----5---------5------5-------------|  
 A|-------------------------------------|  
 E|-------------------------------------|

Y al fin!!!
Bueno esto fue "Tan Cerca Y Tan Lejos" de Zero Balas. Ojalá les guste!!





Calificar esta versión:
Aviso: Este fichero es trabajo propio de su transcriptor y representa su interpretación personal de la canción. El material contenido en esta página es para exclusivo uso privado, por lo que se prohibe su reproducción o retransmisión, así como su uso para fines comerciales.