No Vuelvas Más, Zero Balas (tablatura)

Autor: Anónimo | 25400 visualizaciones



[Riff]

 D5 A5 C5 A5 [x3]
|-----------------------------------------------------|
|-----10------10------10------10-8-7------------------|
|-7-9-----7-9-----7-9-----7-9-------------------------| [x3]
|-----------------------------------------------------|
|-----------------------------------------------------|
|-----------------------------------------------------|

[Verso]

D5
Ahora que siento tus manos
A5
No hay una razon
G5
Para seguir a tu lado
A5
Por que se acabo
D5
Todos los malos momentos
A5
Me los llevo yo
G5
Parte de nuestros pasado
A5
Que ahi quedo

[Pre Coro]
G5
No me busques mas
A5
No pidas perdon
G5          A5
Ahorrate la humillacion

[Coro]
D5             A5
No vuelvas mas amor
G5                           A5
Ya todo esta perdido nuestro tiempo termino
D5             A5
No vuelvas mas amor
G5                       A5
Todo esto que vivimos al final nunca importo

[Riff]

 D5 A5 C5 A5 [x3]
|-----------------------------------------------------|
|-----10------10------10------10-8-7------------------|
|-7-9-----7-9-----7-9-----7-9-------------------------| [x3]
|-----------------------------------------------------|
|-----------------------------------------------------|
|-----------------------------------------------------|

[Verso]

D5
Ahora que pides que vuelva
A5
Recuerda que una vez
G5
Pense que tu cambiarias
A5
Y te volvi a creer
D5
Fueron tantas mentiras
A5
Fue tanta traicion
G5
Que yo ya no dudaria
A5
Por que seria peor

[Pre Coro]

G5
No se donde estaras
A5
Ya no me importara
G5               A5
Si no te llego a encontrar

[Coro]
D5             A5
No vuelvas mas amor
G5                           A5
Ya todo esta perdido nuestro tiempo termino
D5             A5
No vuelvas mas amor
G5                       A5
Todo esto que vivimos al final nunca importo

[Interdulio]

Aunque quieras o no
Esta es mi descision
Se que debo alejarme
Sin ti estoy mejor

|-----------------------------------------------------|
|-----------------------------------------------------|
|-----------------------------------------------------|
|-----------------------------------------------------|
|-----------------------------------------------------|
|-----------------------------------------------------|

[Coro]
D5             A5
No vuelvas mas amor
G5                           A5
Ya todo esta perdido nuestro tiempo termino
D5             A5
No vuelvas mas amor
G5             A5
No vuelvas mas amor
G5             A5
No vuelvas mas amor
G5             A5
No vuelvas mas amor

[Riff]

 D5 A5 C5 A5 [x3]
|-----------------------------------------------------|
|-----10------10------10------10-8-7------------------|
|-7-9-----7-9-----7-9-----7-9-------------------------| [x3]
|-----------------------------------------------------|
|-----------------------------------------------------|
|-----------------------------------------------------|

______________________________________________________________________

spectro_punk5@hotmail.com

alaoz!





Calificar esta versión:
Aviso: Este fichero es trabajo propio de su transcriptor y representa su interpretación personal de la canción. El material contenido en esta página es para exclusivo uso privado, por lo que se prohibe su reproducción o retransmisión, así como su uso para fines comerciales.