Solo Quiero Bailar, Zenttric (tablatura)

Autor: wilmxn | 44568 visualizaciones



aqui le va el intro


e---------------------------------------------------------------
b---------------------------------------------------------------
g-----10--10-------------10--10---------------------------------
D---8---------8----8-------------8------------------------------
A-6--------------6-----6------------6---------------------------
E---------------------------------------------------------------

e---------------------------------------------------------------
b---------------------------------------------------------------
g-------10--10-----------------10--10---------------------------
D----7----------7-----7----------------8------------------------
A-8----------------8---------8------------7---------------------
E---------------------------------------------------------------

e---------------------------------------------------------------
b---------------------------------------------------------------
g--------10---10-----------------10--10-------------------------
D---------------------------------------------------------------
A-----8-----------8-----8-----------------8---------------------
E-10-----------------10-------10------------10------------------

e---------------------------------------------------------------
b---------------------------------------------------------------
g--------10--10---------------10--10----------------------------
D-----8----------8---------7-----------7------------------------
A-10----------------10---8----------------8---------------------
E---------------------------------------------------------------

e---------------------------------------------------------------
b---------------------------------------------------------------
g--------10--10-------------------10--10------------------------
D-----8----------8-----8------------------8---------------------
A--6----------------6----------6-------------6------------------
E---------------------------------------------------------------





Comentarios del colaborador: STA BIEN EL INTRO

Calificar esta versión:
Aviso: Este fichero es trabajo propio de su transcriptor y representa su interpretación personal de la canción. El material contenido en esta página es para exclusivo uso privado, por lo que se prohibe su reproducción o retransmisión, así como su uso para fines comerciales.