The Legend Of Zelda: Majora's Mask., Zelda (tablatura)

Autor: elganadork | 32492 visualizaciones



Aquí esta una versión completa de esta melodía de The Legend Of Zelda:
Majora's Mask.

e:-7-5---7-5-----7-5-------------------
B:-----6------6------5-3---------------
G:-------------------------4-----4----- X2
D:----------------------------0--------
A:-------------------------------------
E:-------------------------------------

e:-1-----1-----1-0------------
B:---1-0---1-0-----0----0-----
G:--------------------2-------
D:----------------------------
A:----------------------------
E:----------------------------

e:-1-----1-----1-0-0-3---
B:---1-0---1-0-----------
G:-----------------------
D:-----------------------
A:-----------------------
E:-----------------------

e:-1-1-1--7-7-7--0-0-0--3-3-3--
B:-----------------------------
G:-----------------------------
D:-----------------------------
A:-----------------------------
E:-----------------------------

e:-1-1-1--7-7-7--0---5---------
B:-----------------3----5------
G:----------------------------- X2
D:-----------------------------
A:-----------------------------
E:-----------------------------

e:-1-3-5-7-8-10-5-7-10-12------
B:-----------------------------
G:-----------------------------
D:-----------------------------
A:-----------------------------
E:-----------------------------

Eso es todo.
Esta canción se la dedico a la persona que una vez amé.
'' P G '' Para que algún día pueda curarme el corazón.
y para que también sane mi alma rota
llega esta canción de parte de [ elganadork ].





Comentarios del colaborador: Esta canción se la dedico a la persona que una vez amé. '' P G '' Para que algún día pueda curarme el corazón. y para que también sane mi alma rota llega esta canción de parte de [ elganadork ]. Game Zone Arcade.

Calificar esta versión:
Aviso: Este fichero es trabajo propio de su transcriptor y representa su interpretación personal de la canción. El material contenido en esta página es para exclusivo uso privado, por lo que se prohibe su reproducción o retransmisión, así como su uso para fines comerciales.