The Legend Of Zelda: A Link To The Past - Gefe, Zelda (acordes)

Autor: elganadork | 27845 visualizaciones



Boss BGM
The Legend of Zelda: A Link to the Past
Composed by Koji Kondo


e------------------------
B--1---0-----------------
G------------------------
D----------3---2---1-----
A---------------------2-1
E------------------------


e------------------------------------------------------------------------
B--------------------------------------3--3--4--3--3--2--3--3--4--3--3--2
G--2--2--3--2--2--1--2--2--3--2--2--1------------------------------------
D------------------------------------------------------------------------
A------------------------------------------------------------------------
E------------------------------------------------------------------------





Comentarios del colaborador: the legend of zelda gefe

Calificar esta versión:
Aviso: Este fichero es trabajo propio de su transcriptor y representa su interpretación personal de la canción. El material contenido en esta página es para exclusivo uso privado, por lo que se prohibe su reproducción o retransmisión, así como su uso para fines comerciales.