The Hidden Village, Zelda (tablatura)

Autor: osiriz0zero | 22695 visualizaciones



e--------------------------------------
G--------------------------------------
B--4----6-7-4-2---------4----6-7-4-2---
D------------------4-------------------
A--------------------------------------
E--------------------------------------

e--------------------------------------
G-----------------------7-13-12-9-8-----------
B--4----6-7-4-2-----------------------------
D------------------4--------------------
A--------------------------------------
E--------------------------------------

e-------------------------------------
G----3----5-6-3-1-------3----5-6-3-1--
B--2----------------2-----------------
D-------------------------------------
A-------------------------------------
E-------------------------------------

e------------------------2--10-9-5-2--
G--3----5-6-3-1-----------------------
B-----------------2-------------------
D-------------------------------------
A-------------------------------------
E-------------------------------------

e--0-2-3-----5-7-2-----------------3-5-0--
G--------------------3----3-5-6-----------
B-----------------------------------------
D-----------------------------------------
A-----------------------------------------
E-----------------------------------------

e--0-2-3-----5-7-2---7----10-10-9---14-9---6--
G---------------------------------------------
B---------------------------------------------
D---------------------------------------------
A---------------------------------------------
E---------------------------------------------

e--------------------------------------
G--------------------------------------
B--4----6-7-4-2---------4----6-7-4-2---
D------------------4-------------------
A--------------------------------------
E--------------------------------------

e--------------------------
G--------------------------
B--4----6-7-4-2---------4--
D------------------4-------
A--------------------------
E--------------------------





Calificar esta versión:
Aviso: Este fichero es trabajo propio de su transcriptor y representa su interpretación personal de la canción. El material contenido en esta página es para exclusivo uso privado, por lo que se prohibe su reproducción o retransmisión, así como su uso para fines comerciales.