The Goddess' Song The Legend Of Zelda: Skyward Sword, Zelda (tablatura)

Autor: elganadork | 25311 visualizaciones



The Goddess' Song

The Legend of Zelda: Skyward Sword

Composed by Hajime Wakai

Tabbed by Michael Kaye

10/11/11


E|----------------------------------------------------
B|----------------------------------------------------
G|--------------5--7----------------------------------
D|-----------5--------5--------5--------------5-------
A|--5--7--8--------------7--5-----7--5--3--5-----7----
E|----------------------------------------------------

E|---------------8--10--------------------------------
B|------------8---------8--------8--------------8-----
G|--7--9--10---------------9--7-----9--7--5--7-----9--
D|----------------------------------------------------
A|----------------------------------------------------
E|----------------------------------------------------


E|----------------------------------------------------
B|--10--10--8--6--6--------8--------------------------
G|-------------------9--7-----9--5--7--7--9----------- x2
D|-------------------------------------------9--7-----
A|----------------------------------------------------
E|----------------------------------------------------





Calificar esta versión:
Aviso: Este fichero es trabajo propio de su transcriptor y representa su interpretación personal de la canción. El material contenido en esta página es para exclusivo uso privado, por lo que se prohibe su reproducción o retransmisión, así como su uso para fines comerciales.