Ocarina Of Time: Canciones De La Ocarina, Zelda (tablatura)

Autor: bofo_misa | 42881 visualizaciones



bueno es solo lo que link toca con su ocarina

zelda´s lullaby

e-------------------------------5--3----
B--------3----------3--------3-------3--
G-----4-----2----4-----2--4-------------
D---------------------------------------
A---------------------------------------
E---------------------------------------



epona´s song

e------------------------------------
B-------3-------3-------3------------
G---------4-2-----4-2-----4-2--4-2---
D------------------------------------
A------------------------------------
E------------------------------------


saria´s song

e---------------------------------------------
B-------------------------------4-2-----------
G------------2-4-----2-4----2-4-----3-4-3-----
D----------3-------3------3---------------4---
A-------------------------------------------5-
E---------------------------------------------



sun´s song

e----------------------------------(esta no me la se completa es 
B------------3-------3------------- es solo el principio)
G--------2------2------------------
D----------3------3----------------
A----------------------------------
E----------------------------------


song of time


e-------------------------------------- 
B----------------1-0------------------- 
G--2-----2-----2-----0---0-2----------- 
D----0-3---0-3---------3-----0---2-0--- 
A------------------------------3------- 
E-------------------------------------- 




song of strom

e---------------------------
B------3-----3-5-6-5-6-5-1--
G-------------------------2- 
D--0-3---0-3---------------- 
A---------------------------
E--------------------------- 

minutes of forest

e-------------------------------
B-------3-----------------------
G---------4--2-4-2--------------
D-----0-------------------------
A-------------------------------
E-------------------------------


bolero of fire



e------------------------------------
B------------------------------------
G-------------------2---2------------
D----------3-0-3-0----3---3----------
A------------------------------------
E------------------------------------


serenade of water

e-------------------------------
B-------------------------------
G----------2-2-4----------------
D------0-3----------------------
A-------------------------------
E-------------------------------


requiem of spirits

e-----------------------------------
B-----------------------------------
G---------------2-------------------
D---------0-3-0---3-0---------------
A-----------------------------------
E-----------------------------------


nocturne of shadow


e--------------------------------
B--------------------------------
G-----4-2-2---2-4----------------
D-----------0-----3--------------
A--------------------------------
E--------------------------------


prelude of light

e-------------------------------
B------3---3-----3--------------
G--------2---2-4----------------
D-------------------------------
A-------------------------------
E-------------------------------





Calificar esta versión:
Aviso: Este fichero es trabajo propio de su transcriptor y representa su interpretación personal de la canción. El material contenido en esta página es para exclusivo uso privado, por lo que se prohibe su reproducción o retransmisión, así como su uso para fines comerciales.