Gerudos Valley, Zelda (tablatura)

Autor: sty2j | 42054 visualizaciones



Gerudo Valley                       


                                     The Legend Of zelda
Lead



     S S S E  E  E  S S S Q                             
E||--------------5----4-7-9----|-------|-------|-------|
B||-----------7-----6----------|-------|-------|-------|
G||------4-7-------------------|-------|-------|-------|
D||----6-----------------------|-------|-------|-------|
A||--4-------------------------|-------|-------|-------|
E||----------------------------|-------|-------|-------|


                          S S S E  S S S H         
-------|-------|-------|----2-4-5----2-4-5--------|
-------|-------|-------|--2--------2--------------|
-------|-------|-------|--------------------------|
-------|-------|-------|--------------------------|
-------|-------|-------|--------------------------|
-------|-------|-------|--------------------------|


  S S S E  S S S H           S S S E  S S S H         
----2-4-5----2-4-5--------|----0-2-4----0-2-4--------|
--3--------3--------------|--0--------0--------------|
--------------------------|--------------------------|
--------------------------|--------------------------|
--------------------------|--------------------------|
--------------------------|--------------------------|


  S S S H        Q    S      S S S E  S S S H         
--2-4-2-1---------------||-----2-4-5----2-4-5--------|
------------------------||---2--------2--------------|
------------------------||*--------------------------|
------------------------||*--------------------------|
------------------------||---------------------------|
------------------------||---------------------------|


  S S S E  S S S H           S S S E  S S S H         
----2-4-5----2-4-5--------|----0-2-4----0-2-4--------|
--3--------3--------------|--0--------0--------------|
--------------------------|--------------------------|
--------------------------|--------------------------|
--------------------------|--------------------------|
--------------------------|--------------------------|


  S S S H        Q    S    Q    Q    Q    Q     
--5-7-5-4---------------|-------5----4----2----|
------------------------|--2-------------------|
------------------------|----------------------|
------------------------|----------------------|
------------------------|----------------------|
------------------------|----------------------|


  S Q    S  S S H           Q    Q    Q    Q     
----0----0h-2-0----------|-------4----2----0----|
--2-------------3--------|--0-------------------|
-------------------------|----------------------|
-------------------------|----------------------|
-------------------------|----------------------|
-------------------------|----------------------|


  S Q    S  S S H           Q    Q    Q    Q     
-------------------------|-------5----4----2----|
--0-3----3h-5-3-2--------|--2-------------------|
-------------------------|----------------------|
-------------------------|----------------------|
-------------------------|----------------------|
-------------------------|----------------------|


  S Q    S  S S H           E  Q    E  E  Q    E   
----0----0h-2-0----------|-------------2--0-------|
--2-------------3--------|-----0-------3--2-------|
-------------------------|--2---------------------|
-------------------------|--4---------------------|
-------------------------|------------------------|
-------------------------|------------------------|


  E  H        E  Q       Q    Q    Q    Q     
----------------------|--5----4----5----4----|
--3--2----------------|----------------------|
--1--1----------------|----------------------|
----------------------|----------------------|
----------------------|----------------------|
----------------------|----------------------|


  S Q    S S H        S    Q    Q    Q    Q     
------------------------|--4----2----4----0----|
----5-------------------|----------------------|
--6------7-6-7----------|----------------------|
------------------------|----------------------|
------------------------|----------------------|
------------------------|----------------------|


  E  Q    S  S  S Q    E  S    S S S E  S S S H         
----------------------------|--------------------------|
--3--2----3h-5p-3-2---------|--------2--------2--------|
----------------------------|----1-2------1-2----------|
----------------------------|--4--------4--------------|
----------------------------|--------------------------|
----------------------------|--------------------------|


  S S S E  S S S H           E  Q    E  E  Q    E   
--------------------------|-------------4--2-------|
--------3--------3--------|--3--0-------3--2-------|
----1-2------1-2----------|--2---------------------|
--4--------4--------------|------------------------|
--------------------------|------------------------|
--------------------------|------------------------|


  E  H        E  Q       S S H        E  S S S S  
----------------------|--5-4-5-------------4-5-7-|
--0--2----------------|------------------7-------|
--1--1----------------|--------------------------|
----------------------|--------------------------|
----------------------|--------------------------|
----------------------|--------------------------|


  S S S S H        Q       S S H        E  S S S S  
--5-4-5-4-5-------------|--4-2-4-------------2-4-5-|
------------------------|------------------5-------|
------------------------|--------------------------|
------------------------|--------------------------|
------------------------|--------------------------|
------------------------|--------------------------|


  S S S S H        Q       S S H        E  S S S S  
--4-2-4-2-1-------------|--5-4-5-------------4-5-7-|
------------------------|------------------7-------|
------------------------|--------------------------|
------------------------|--------------------------|
------------------------|--------------------------|
------------------------|--------------------------|


  S S S S H        Q     
--5-4-5-4-5-------------|
------------------------|
------------------------|
------------------------|
------------------------|
------------------------|


   S  S  H        E  S  S  S S  
-----------------------------9-|
--12-10-12-----------9-10-12---|
-------------------------------|
-------------------------------|
-------------------------------|
-------------------------------|


   S  S S  S H        Q       E  S E  E  E  S E  Q     
--10-12-9-10-9-------------|--------------------------|
---------------------------|--------------------------|
---------------------------|-----2-1--2-----2-1--2----|
---------------------------|--4----------4------------|
---------------------------|--------------------------|
---------------------------|--------------------------|


  E  S E  E  E  S E  Q       E  S E  E  E  S E  Q     
--------------------------|--------------------------|
--------------------------|--------------------------|
-----2-1--2-----2-1--2----|-----4-3--4-----4-3--4----|
--0----------0------------|--2----------2------------|
--------------------------|--------------------------|
--------------------------|--------------------------|


  S  S  S H        Q    S                              
--------------------------|----|----|-----||----|----||
--3h-5p-3-2---------------|----|----|-----||----|----||
--------------------------|----|----|----*||----|----||
--------------------------|----|----|----*||----|----||
--------------------------|----|----|-----||----|----||
--------------------------|----|----|-----||----|----||





Calificar esta versión:
Aviso: Este fichero es trabajo propio de su transcriptor y representa su interpretación personal de la canción. El material contenido en esta página es para exclusivo uso privado, por lo que se prohibe su reproducción o retransmisión, así como su uso para fines comerciales.