Epona's Song, Zelda (tablatura)

Autor: Timehero | 22525 visualizaciones



1)---------------------------------------------------------
2)-3-0----3-0----3-0---0-2----------0-3-0--3-3-3-1-0-2-----
3)-----2------2------2-------0----0------------------------
4)------------------------------4--------------------------
5)---------------------------------------------------------
6)---------------------------------------------------------



1)-------------------------------------------------------
2)-3-0----3-0----3-0---0-2-----------0-3-0---3-3-5-3-----
3)-----2------2------2-------0----0----------------------
4)------------------------------4------------------------
5)-------------------------------------------------------
6)-------------------------------------------------------





Calificar esta versión:
Aviso: Este fichero es trabajo propio de su transcriptor y representa su interpretación personal de la canción. El material contenido en esta página es para exclusivo uso privado, por lo que se prohibe su reproducción o retransmisión, así como su uso para fines comerciales.