Ballad Of The Goddess, Zelda (tablatura)

Autor: timehero | 33972 visualizaciones



E.------------------------------------------------------------
B.------------1-3---------------------------------------------
G.---------0------0-------0-----------0-----------------------
D.--0--2-3----------2--0----2--0---0-----2--------------------Bis 
A.-------------------------------3----------------------------
E.------------------------------------------------------------


E.--5--5-3-1-1-0----3-0---------------------------------------
B.----------------1------1--1-1-3-0---------------------------
G.-----------------------------------2------------------------
D.------------------------------------------------------------
A.------------------------------------------------------------
E.------------------------------------------------------------


E.--5--5-3-1-1-0----3-0------------------5--------------------
B.----------------1------1--1-1-3-0---------------------------
G.-----------------------------------2------------------------
D.------------------------------------------------------------
A.------------------------------------------------------------
E.------------------------------------------------------------



E.------------------------------------------------------------
B.------------1-3---------------------------------------------
G.---------0------0-------0-----------0-----------------------
D.--0--2-3----------2--0----2--0---0-----2--------------------Bis  
A.-------------------------------3----------------------------
E.------------------------------------------------------------





Calificar esta versión:
Aviso: Este fichero es trabajo propio de su transcriptor y representa su interpretación personal de la canción. El material contenido en esta página es para exclusivo uso privado, por lo que se prohibe su reproducción o retransmisión, así como su uso para fines comerciales.