Milanesa De Pija, Zambayonny (acordes)

Autor: Anónimo | 40550 visualizaciones

dososfasosresossisolsos
rif 1
1----------------------------------------------|
2----------------------------------------------|
3----------------------------------------------|
4-9-9---11---------9---------------------------|
5-----11--9----9-11----------------------------|
6----------------------------------------------|
rif 2
1----------------------------------------------|
2----------------------------------------------|
3----------------------------------------------|
4-9-9---11-------------------------------------|
5-----11--9--9-9-9-9-9-9-----------------------|
6----------------------------------------------|
   rif 1
hay
   rif 1
hay
              rif 1
esta noche hay
   rif 1
hay
             silencio
estanoche hay
                 rif 2
milanesa de pija.

          Re#                  Do#
Hoy no me puse los zapatos italianos,
                     Si                 Re#
ni guarde champange helado en el congelador,
        Re#                       Do#
ni reserve un par de entradas al teatro,
                     Si                     Do#
ni me hice el pool barato con paja del de japón

                     rif 1
                     Si-Si-Sol#-Do#-Fa#
Porque esta noche hay
                rif 1
                Si-Si-Sol#-Do#-Fa#
milanesa de pija
              rif 1
              Si-Si-Sol#-Do#-Fa#
esta noche hay
                rif 1
                Si-Si-Sol#-Do#-Fa#
milanesa de pija..


bue es asi masomenos
no sigo la letra xq no la encuentro
x ningun lado aparte copiarla es mucho laburo
jaja re vago
espero q les haya gustado
votenme si les gusta
chau!!!
Calificar esta versión:
Aviso: Este fichero es trabajo propio de su transcriptor y representa su interpretación personal de la canción. El material contenido en esta página es para exclusivo uso privado, por lo que se prohibe su reproducción o retransmisión, así como su uso para fines comerciales.