El Roger, Zambayonny (tablatura)

Autor: Anónimo | 34661 visualizaciones



                             G
Anda de capa caida el pobre roger
                             Am
le llego el telegrama de despido
                            D7
la semana que mudaron una iglesia
                        C                G  C G
justo alado en lo que siempre fue un baldio

Y le clavan misa siete menos cuarto
por los santos nazis de las marionetas
no es violento pero tiene una escopeta
por ahora se va al garage con una colchoneta

ESTRIBILLO
              C
Go roger go roger
            G
go roger go go
             D
go roger go roger
C    D      G
go roger go go

Le culean la mujer al pobre roger
todo el barrio sabe hasta los detalles
no se lo dicen para que no se enoje
y el boludo ni la deja maquillarse

Pero parece que anda sospechando algo
por que anduvo ironizando con corneta
no es violento pero tiene una escopeta
por ahora le conversa a las macetas

ESTRIBILLO

Go roger go roger
go roger go go
go roger go roger
go roger go go

Se le hizo un hijo puto al pobre roger
que le anda por la casa con pañuelos
escuchando todo el dia a deivid bowing
y el lo obliga a ver a san lorenzo

Menos mal que no conoce todavia
al gorila que le come la bragueta
no es violeto pero tiene una escopeta
por ahora pone fuerte heavy metal

SOLO

E|-----------------------------------------------------------------
B|----------15-------------------15--------------------------------
G|-14b-14/16----14/12--14b-14/16----14b--14b-14b-14-14-14-12-------
D|-----------------------------------------------------------13-12-
A|-----------------------------------------------------------------
E|-----------------------------------------------------------------


-------------------------------------------------------------------|
-------------------------------------------------------------------|
--14b-14b-14-12-12--14-12------------------------------------------|
--------------------------14-12-14-12------------------------------|
--------------------------------------14-12-14-12------------------|
--------------------------------------------------15-14-15---------|

Le robaron el torino al pobre roger
que se habia comprado 0 en los setenta
lo tenia original hasta en los bornes
tapizado de leopardo y perfume a menta

Lo encontro prendido fuego en Aldo Bonzi
le faltaban nada mas que las cubiertas
no es violento pero tiene una escopeta
por ahora sale a andar en bicicleta

ESTRIBILLO

Go roger go roger
go roger go go
go roger go roger
go roger go go

Aguante Zambayonny loco! fede leo gato! ajaj





Calificar esta versión:
Aviso: Este fichero es trabajo propio de su transcriptor y representa su interpretación personal de la canción. El material contenido en esta página es para exclusivo uso privado, por lo que se prohibe su reproducción o retransmisión, así como su uso para fines comerciales.