Dime Que Falto, Zacarias Ferreira (tablatura)

Autor: thenew0213 | 33169 visualizaciones

El requinto usa el Capo en el 5to traste

E-10-8-7------8-----12-10-8-5---7----10-8-7-5----5----8-7-5------7--
B--------8---8-8---------------8-8--------------7-7---------8---8-8-
G-----------9-----------------7----------------7---------------7----

E-10-8-7------8-----12-10-8-5---7----10-8-7-5----5----8-7-5--------
B--------8---8-8---------------8-8--------------7-7---------7h8----
G-----------9-----------------7----------------7-------------------

E---7--7-----8--8-----12-8------7-7-----10-7------5-5-----8-5-----
B----8---------8--------8--------8--------8--------7-------7------
G-7--------9--------9---------7-------7---------7-------7---------

E---7-7---10--7-----8--8----12-8------7--------
B----8------8---------8-------8------8----7h8--
G-7------7--------9-------9--------7-----------

        G     C            G                                 D
Tienes tu derecho en tu vida,       para hacer lo que tu desidas,
        C              G                      D              G
si cariño yo te di de mas,     pero a tu corazon no pude amarrar
         G     C             G                                  D
nunca quise tenerte a la fuerza y   como un hombre me pude aguantar
          C                  G                  D                  G
tienes derecho a vivir y a volar    como un desahogo te quise preguntar

            C                G                  D          G
dime que falto, que yo no te di     que querias tu, mas de mi X2

E-10-8-7------8-----12-10-8-5---7----10-8-7-5----5----8-7-5------7--
B--------8---8-8---------------8-8--------------7-7---------8---8-8-
G-----------9-----------------7----------------7---------------7----

E-10-8-7------8-----12-10-8-5---7----10-8-7-5----5----8-7-5--------
B--------8---8-8---------------8-8--------------7-7---------7h8----
G-----------9-----------------7----------------7-------------------

E---7--7-----8--8-----12-8------7-7-----10-7------5-5-----8-5-----
B----8---------8--------8--------8--------8--------7-------7------
G-7--------9--------9---------7-------7---------7-------7---------

E---7-7---10--7-----8--8----12-8---
B----8------8---------8-------8----
G-7------7--------9-------9--------

SOLO

E-12-12-12-12-10-10h12-10-8-----15-15-15-15-12-12h15-12-10

E-14-14-14-14-12-12h14-10-8-----7-8--7-8-10-

E-12-12-12-12-10-10h12-10-8-----15-15-15-15-12-12h15-12-10

E-14-14-14-14-12-12h14-10-8-----7-8--7--------
B--------------------------------------8------

       G        C      G                                D
en mi vida no habia descanso   estaba solo queriendote a ti
           C             G              D                  G
pensando  como haserte feliz   en esa tortura me olvide de mi
         G       C      G                               D
he desidido a dejarte libre    por si era tu bella ilucion,
                C               G
te habri las puertas de mi corazon
                D                     G
y dije estas palabras como un unico adios

            C                G                  D          G
dime que falto, que yo no te di     que querias tu, mas de mi X2

E-10-8-7------8-----12-10-8-5---7----10-8-7-5----5----8-7-5------7--
B--------8---8-8---------------8-8--------------7-7---------8---8-8-
G-----------9-----------------7----------------7---------------7----

E-10-8-7------8-----12-10-8-5---7---------7-8-10-----10-8-7-5-----
B--------8---8-8---------------8-8-------8--------------------8--
G-----------9-----------------7---------7-----------------------9--
D--------------------------------------9--------------------------
Calificar esta versión:
Aviso: Este fichero es trabajo propio de su transcriptor y representa su interpretación personal de la canción. El material contenido en esta página es para exclusivo uso privado, por lo que se prohibe su reproducción o retransmisión, así como su uso para fines comerciales.