Life Acoustic, Yui (tablatura)

Autor: narutokurosaki27 | 16321 visualizaciones

[Intro1]

|------------------------------------------------------------|
|------------------------------------------------------------|
|-------6-4---4--------4-----4-----4-------------------------|
|---4/6------6-6---2/4---2/4---2/4---------------------------|
|------------------------------------------------------------|
|------------------------------------------------------------|

(2x)

intro²

|---4---4-----2---------|
|---4---4-----2---------|
|---6---4-----3---------|
|---6---4-----4---------| (2x)
|---4---4-----4---------|
|---4---4-----2---------|

[Verse 1:]

|---4-----4-----2----2----1---------2--|
|---4-----4-----2----2----2---------2--|
|---6-----4-----3----2----3---------3--|
|---6-----4-----4----4----3---------4--| (2x)
|---4-----4-----4----4----1---------4--|
|---4-----4-----2----2----1---------2--|
(Doro...najime..de..you...nai...aruita no...)

Doro darake yo najime nai tokai de
Onaji you ni warae nai utsumuite aruita no
Isogi ashi de surechigau hito-tachi
?Yume wa kanai mashita ka??
ATASHI mada MOGAite iru

[pre-chorus]

|--2----------2-----2--------1-------6---------4-------6------3--
|--2----------2-----2--------2-------6---------4-------6------3--
|--4----------3-----4--------3-------8---------4-------6------3--
|--4----------4-----4--------3-------8---------6-------8------5--
|--2----------4-----2--------1-------6---------6-------8------5--
|--2----------2-----2--------1-------6---------4-------6------3--
(Kodomo...yori mo...Ima wo...mitai..yo...Kowagari wa...tsuki    )

Kodomo no goro ni modoru yori mo
Ima wo umaku ikite mitai yo
Kowagari wa umare tsuki

|-0-------2-----------6--------4---|--0------2------------4------
|-0-------2-----------6--------4---|--0------2------------4------
|-1-------3-----------8--------4---|--1------3------------4------
|-2-------4-----------8--------6---|--2------4------------6------
|-2-------4-----------6--------6---|--2------4------------6------
|-0-------2-----------6--------4---|--0------2------------4------
(Hi no...dete..Ryoute wo hirogete...) (Ano...koete...ka na?... )
(Tobi-..-basa....Sore wa......mie..Kantani..nai........yukeru..)				
eso es todo amigos
Calificar esta versión:
Aviso: Este fichero es trabajo propio de su transcriptor y representa su interpretación personal de la canción. El material contenido en esta página es para exclusivo uso privado, por lo que se prohibe su reproducción o retransmisión, así como su uso para fines comerciales.