Again, Yui (acordes)

Autor: narutokurosaki27 | 22855 visualizaciones

aambb7cddsus2ebemfggm
acordes y tabs

Yui again
: Dsus2 

e|-0---0-----0-----0------ 
B|--3----3-----3-----3---- 
G|---2-----2-----2-----2-- 
D|------------------------ 
A|------------------------ 
E|------------------------ 

Em D C B7 [x2] 
B7 

[intro solo]: 
e|---------------------------------------------------------------
B|------8-7---------8-7-8/10-8-7---------8-7---------8-7---------
G|----7-----7-----7--------------8-----7-----7-----7----- 
D|-/9----------/9-------------------/9----------/9
A|--------------------------------------- 
E|--------------------------------------- 

Em           D        C 
     Yume no tsuzuki oikaketeita hazu nano ni 
Em          D        C 
     Magarikunetta hosoi michi hito ni tsumazuku 

Em                       D                       C 
Ano koro ni mitai ni tte modoritai wake janai no nakushitekita sora wo sagashiteru 
Em                     D                     C 
Wakattekuremasu you ni gisei ni natta you na kanashii kao wa yamete yo 

Em 
Tsumi no saigo wa namida janai yo 
Em 
zutto kurushiku seotte kun da 
Em 
Deguchi mienai kanjou meiru ni 
C       D 
Dare wo matteru no 
Em 
Shiroi NOOTO ni tsuzutta you ni 
Em 
motto sunao ni hakidashitai yo 
Em 
Nani kara nogaretainda 
C      D 
Genjitsu tte yatsu 

C               D 
Kanaeru tame ni ikiterun datte 
Em                    A     B 
Wasurechaisou na yoru no mannaka 
C              D               Em 
Bunan ni nante yatterarenai kara 
Em         B 
Kaeru basho mo nai no 
C                 D 
Kono omoi wo keshite shimau ni wa 
Em                        A       B 
Mada jinsei nagai deshou [I?m on the way] 
C 
Natsukashikunaru 
D 
Konna itami mo kangei jan 

Em 

Em       D          C 
    Ayamaranakucha ikenai yo ne aa gomen ne 
Em        D            C 
    Umaku ienakute shinpai kaketa mama datta ne 

Em                   D                     
Ano hi kakaeta zenbu ashita kakaeru zenbu 
C 
Junban tsuketari wa shinai kara 
Em                     D 
Wakattekuremasu you ni sotto me wo tojitanda 
C 
Mitakunai mono made miendamon 

Em 
Iranai uwasa ni chotto 
Em 
hajimete kiku hatsugen docchi 
Em 
Mukaiattara tomodachi datte 
C      D 
Uso wa yamete ne 
Em 
Fukai HAATO ga iradatsu you ni 
Em 
karadan naka moeteirun da 
Em 
Hontou wa kitai shiten no 
C      D 
Genjitsu tte yatsu 

C                D 
Kanaeru tame ni ikiterun datte 
Em                 A        B 
Sakebitaku naru yo kikoete imasu ka 
C                 D             Em 
Bunan ni nante yatterarenai kara 
Em         B 
Kaeru basho mo nai no 
C                D 
Yasashisa ni wa itsumo kansha shiteru 
Em                      A       B 
Dakara tsuyoku naritai [I?m on the way] 
C 
Susumu tame ni 
D 
Teki mo mikata mo kangei jan 

F            G         Am 
Douyatte tsugi no DOA akerun dakke kangaeteru 
F      G         Am                        
Mou hikikaesenai monogatari hajimatterun da 
F            D 
Me wo samase me wo samase 

Solo:     --\ 
Eb F Gm   ---> //I'm not so sure about this part// 
Eb F D    --/  

[solo] 
e|--------------------------------------- 
B|--------------------------------------- 
G|-2/8-8-8-8-7-7-7-----8-8-8-7-7-7------5 ---7--7b8b7----/8-8-8-10-10-10- 
D|-----------------8-8-------------8-8--- 
A|--------------------------------------- 
E|--------------------------------------- 

e|--------------------------------------- 
B|-8-8-10-10-10-11-11-11-13-13--15--13--1 5b16b15
G|--------------------------------------- 
D|--------------------------------------- 
A|--------------------------------------- 
E|--------------------------------------- 

C                 D 
Kono omoi wo keshite shimau ni wa 
Em                         
Mada jinsei nagai deshou 
C                      D               Em 
Yarinokoshiteru koto yarinaoshite mitai  kara 
B                
Mou ichido yukou 

C                D 
Kanaeru tame ni ikiterun datte 
Em                 A        B 
Sakebitaku naru yo kikoete imasu ka 
C                 D             Em 
Bunan ni nante yatterarenai kara 
Em         B 
Kaeru basho mo nai no 
C                D 
Yasashisa ni wa itsumo kansha shiteru 
Em                      A       B 
Dakara tsuyoku naritai [I?m on the way] 
C 
Natsukashikunaru 

D 
Konna itami mo kangei jan 

[repeat intro]: 
Em D C B7 [x2] 
B7 
Em 

[repeat intro solo]: 
e|--------------------------------------- 
B|------8-7---------8-7-8/10-8-7--------- 
G|----7-----7-----7--------------8-----7- 
D|-/9----------/9-------------------/9--- 
A|--------------------------------------- 
E|--------------------------------------- 
________________________________________

Comentarios del colaborador: ultimate guitar

Calificar esta versión:
Aviso: Este fichero es trabajo propio de su transcriptor y representa su interpretación personal de la canción. El material contenido en esta página es para exclusivo uso privado, por lo que se prohibe su reproducción o retransmisión, así como su uso para fines comerciales.