Far Beyond The Sun, Yngwie Malmsteen (tablatura)

Autor: Iñigo17 | 43500 visualizaciones



b=bend 
r=release 
tr=trill 
h=hammer on 
p=pull off 
s=slide 
~=vibrato 
||=repeat  
|=end of bar 
%=repeat last bar 
 
|----------|----------------|----------------|-----------------------------| 
|----------|----------------|----------------|-----------------------------| 
|----------|----------------|----------------|----------------------6------| 
|----4-4-4-|--3~------6-6-6-|-4~-------7-7-7-|-6~---9-9-9-8~----8-9--------| 
|----------|----------------|----------------|-----------------------------| 
|----------|----------------|----------------|-----------------------------| 
|          |                |                |                             | 
|          |                |                |                             | 
|----------|----------------|----------------|-----------------------------| 
|----------|----------------|----------------|-----------------------------| 
|----------|----------------|----------------|-----------------------------| 
|----------|----------3-3-3-|-4~-------4-4-4-|-3~---6-6-6-4~----4-6-7------| 
|----5-5-5-|--4~------------|----------------|-----------------------------| 
|----------|----------------|----------------|-----------------------------| 
 
 
|-------------|--------------------|---------------------|-----------------| 
|-------------|--------------------|---------------------|-----------------| 
|-7~----------|----------6~--------|-----------4~--------|-----------------| 
|-------7-7-7-|-6--6-7-9-----6-6-6-|-4~--4-6-7-----4-4-4-|-6-3-------------| 
|-------------|--------------------|---------------------|-----5-2---------| 
|-------------|--------------------|---------------------|---------4-1-----| 
|             |                    |                     |                 | 
|             |                    |                     |                 | 
|-------------|--------------------|---------------------|-----------------| 
|-------------|--------------------|---------------------|-----------------| 
|-4~----------|----------2~--------|---------------------|-----------------| 
|-------------|-2--2-4-6-----------|---------4-6~--4-4-4-|-6-3-------------| 
|-------------|--------------------|-5~--5-7-------------|-----5-2---------| 
|-------------|--------------------|---------------------|---------4-1-----| 
 
  
------------------------|---------------------|----------------------------| 
------------------------|---------------------|----------------------------| 
------------------------|---------------------|----------------6-----------| 
------------------------|-4-------------------|----------------6-----------| 
------2-4-5-4-2---------|-4-------------------|----------------4-----------| 
2-4-5-----------5-4-2-1-|-2-------------------|----------------------------| 
 
 
13h14p13p10-------------------------|-------------------|------------------| 
------------14-12-10----------------|-------------------|------------------| 
---------------------13-11-10-------|-------------------|-------%----------| 
------------------------------12-11-|-9-----------------|------------------| 
------------------------------------|---12-11-9-8~------|------------------| 
------------------------------------|-------------------|------------------| 
 
 
-----------10-13p10-------------13-16p13-------|--------16--19s21~---------| 
--------12----------12-------15----------15----|-----18--------------------| 
--10s13----------------13s16----------------16-|-s19-----------------------| 
-----------------------------------------------|---------------------------| 
-----------------------------------------------|---------------------------| 
-----------------------------------------------|---------------------------| 
 
13h14p13p10-------------------------|--------------------------------------| 
------------14-12-10----------------|--------------------------------------| 
---------------------13-11-10-------|--------------------------------------| 
------------------------------12-11-|-9------------------------------------| 
------------------------------------|---12-11-9-8~-------------------------| 
------------------------------------|--------------------------------------| 
 
 
------------------|-----------|---------------------|----------------------| 
------------------|-----------|---7-6-7~---10-9-10~-|10-14-13-14~-s--------| 
------------------|---6-5-6~--|-6-------------------|----------------------| 
4-3-4~---4-7-6-7~-|-7---------|---------------------|----------------------| 
------------------|-----------|---------------------|----------------------| 
------------------|-----------|---------------------|----------------------| 
 
 
----------s17-16-17~--|-s21-20-21~--|-21-19-17-16-19-17-16-14-17-16-14-13--- 
19-18-19~-------------|-------------|--------------------------------------- 
----------------------|-------------|--------------------------------------- 
----------------------|-------------|--------------------------------------- 
----------------------|-------------|--------------------------------------- 
----------------------|-------------|--------------------------------------- 
 
 
16-14p13-------|----------------------------------|------------------------- 
---------15p14-|-12-------------------------------|------------------------- 
---------------|----13-11-10----------------------|------------------------- 
---------------|-------------12-11-9--------------|------------------------- 
---------------|---------------------12-11-9-8~---|------------------------- 
---------------|----------------------------------|------------------------- 
 
 
||-------------------|-------------------------|---------------------------| 
||-------------------|-------------------------|---------------------------| 
||-7-7-7-7-7-7-6-----|-------------------------|-----------6---------6-7---| 
||---------------9-7-|-6-6-6-6-6-6-6-6-6-6-7-9-|-7-7-7-7-9---9-9-9-9-------| 
||-------------------|-------------------------|---------------------------| 
||-------------------|-------------------------|---------------------------| 
 
 
---------9h10p9h10-----------9h10p9h10--|----------------------------------| 
----------------------------------------|----------------------------------| 
6h7p6h7-------------6h7p6h7-------------|-7-7-7-7-7-7-7-7-7-6--------------| 
----------------------------------------|---------------------9-7----------| 
----------------------------------------|----------------------------------| 
----------------------------------------|----------------------------------| 
 
 
---------------------9h|10p9p7---------------------------------------------| 
-----------------------|-------10p9p7-------10p9---------------------------| 
-----------------------|--------------9p7s6------11p9---------11p9---------| 
-6-6-6-6-6-6-6-6-6-6---|------------------------------12p11-9------12------| 
-----------------------|---------------------------------------------------| 
-----------------------|---------------------------------------------------| 
 
 
---------------------------||   repeat all in double bars again 
---------------------------|| 
-----------------------9bf-|| 
11p9----12p11-9------------|| 
-----12---------12p11------|| 
---------------------------|| 
 
 
-------9-14p9----------9-14p9s17p14----------14-17p14----|14-17p14----14s21- 
---10---------10----10--------------14----14----------14-|---------14------- 
11---------------11--------------------14----------------|------------------ 
---------------------------------------------------------|------------------ 
---------------------------------------------------------|------------------ 
---------------------------------------------------------|------------------ 
 
 
p17-21p17---------||------------------------|-------------------|----------- 
----------19------||------------------------|-------------------|------14--- 
-------------18~--||---------13--13h14------|-13-14-16h18p16-13-|-16bf------ 
------------------||-14h16~-------------16~-|-------------------|----------- 
------------------||------------------------|-------------------|----------- 
------------------||------------------------|-------------------|----------- 
 
 
-----------------------|---------------|-----------------------------------| 
h15p14-----------------|---------------|-----------------------------------| 
-------16--14h16p14p13-|-14~-----------|-13h14-----13----------------------| 
-----------------------|---------------|-----------------14----------------| 
-----------------------|---------------|-----------------------------------| 
-----------------------|---------------|-----------------------------------| 
 
 
---------14-17p14----14h21p14----14-17p14----14----|| 
------14----------14----------14----------14----14-||play part between double 
---14----------------------------------------------||bars again 
16-------------------------------------------------|| 
---------------------------------------------------|| 
---------------------------------------------------|| 
 
                                                          b 1 1/2 b r b r b~ 
--------------------------|------------------------------------------------| 
-----------------------14-|-19-17-15--14h15p14----14-----------------------| 
13h14---13----------14----|--------------------16----16s18b----------------| 
--------------14-16-------|------------------------------------------------| 
--------------------------|------------------------------------------------| 
--------------------------|------------------------------------------------| 
 
 
---------------|-------------------------|----------------|----------------| 
---------------|-------------------------|----------------|----------------| 
13-13-13-14-16-|-14h16--14h16p14s13-14~--|-16-16-16-18-19-|-18-19bf--------| 
---------------|-------------------------|----------------|----------------| 
---------------|-------------------------|----------------|----------------| 
---------------|-------------------------|----------------|----------------| 
 
                                              w/bar 
----------|------------------|--------------|------------------------------| 
----------|------------------|--------------|------------------------------| 
19~-s16~--|-18h19-18-18s14~--|-14---13--11--|-10---h--11---11bf------------| 
----------|------------------|--------------|---------------------4-4-4----| 
----------|------------------|--------------|------------------------------| 
----------|------------------|--------------|------------------------------| 
 
 
|-----------------------------|----------------------------| 
|-----------------------------|----------------------------| 
|---------6-7-6h7p6-----------|---------6-7-6--------------| 
|---6-7-9-----------9-7-6-----|---6-7-9-------9-7-6--------| 
|-9-----------------------9-8-|-9-------------------9-8----| 
|-----------------------------|----------------------------| 
|                             |                            | 
|                             |                            | 
|-----------------------------|----------------------------| 
|-----------------------------|----------------------------| 
|-----------------------------|-------------%--------------| 
|-----------------------------|----------------------------| 
|-------2-4-5-----4-2---------|----------------------------| 
|-2-4-5---------------5-4-2-1-|----------------------------| 
 
 
----------------------------|----------------------7-9h-|-10--s--7~--------| 
----------------------------|-------------6h7-9s10------|------------------| 
--------6-7-6h7p6-----------|---------6-7---------------|------------------| 
--6-7-9-----------9-7-6-----|---6-7-9-------------------|------------------| 
9-----------------------9-8-|-9-------------------------|------------------| 
----------------------------|---------------------------|------------------| 
 
 
9--10--9------|------------------|----------13s16p13--------|17-16-14-13---- 
----------10~-|9h10~---9h10p9----|-------12----------15-----|--------------- 
--------------|---------------11-|-10h13----------------16~-|--------------- 
--------------|------------------|--------------------------|--------------- 
--------------|------------------|--------------------------|--------------- 
--------------|------------------|--------------------------|--------------- 
 
 
---14-13-------17p16-14-13----14p13-16s21-|-21~--20-21-20-21-16-17-16-17-13- 
15-------15-14-------------15-------------|--------------------------------- 
------------------------------------------|--------------------------------- 
------------------------------------------|--------------------------------- 
------------------------------------------|--------------------------------- 
------------------------------------------|--------------------------------- 
 
 
14-13-14----------------------------------------------------|--------------- 
---------13-14-13-14----------------------------------------|-----------9s10 
---------------------13-14-13-14-10-11-10-11----------------|-----6---6----- 
---------------------------------------------10-11-10-11----|-6h7---7------- 
---------------------------------------------------------12-|--------------- 
------------------------------------------------------------|--------------- 
 
      palm mute 
----||-------------------|---------------------|---------------------------- 
9~--||------------9-10~--|------------9-10-9~--|------------9-11~--10-12-14- 
----||-------6-11--------|-------6-11----------|-------6-11----------------- 
----||---6-7-------------|---6-7---------------|---6-7---------------------- 
----||-9-----------------|-9-------------------|-9-------------------------- 
----||-------------------|---------------------|---------------------------- 
 
 
10-13h-|-14p13-10-------------------------------------|--------------------| 
-------|----------14-12-10----------------------------|------------9-10~---| 
-------|-------------------13-11-10-------------------|-------6-11---------| 
-------|----------------------------12-11-9-----------|---6-7--------------| 
-------|------------------------------------12-11-9s7-|-9------------------| 
-------|----------------------------------------------|--------------------| 
 
              w/bar scoop 
---------------------------|-19bf~----||-----------------------------------| 
-----------9-10--9---------|----------||10--9h10p9--7h9p7------7-9---------| 
------6-11-----------------|----------||-------------------10~-------------| 
--6-7----------------------|----------||-----------------------------------| 
9--------------------------|----------||-----------------------------------| 
---------------------------|----------||-----------------------------------| 
 
 
-----------------------|---------------------------------------------------- 
10-9h10p9--------------|-------------------------------------15-12-14-15-14- 
----------11-10~-11-13-|-14-11-13-14-13-11-14-11-13-14-13-11---------------- 
-----------------------|---------------------------------------------------- 
-----------------------|---------------------------------------------------- 
-----------------------|---------------------------------------------------- 
 
 
---16-13-|-14-16-14-13-17-14-16-17-16-14-19-16-17-19-17-16-19bf-|--19bf~---- 
12-------|------------------------------------------------------|----------- 
---------|------------------------------------------------------|----------- 
---------|------------------------------------------------------|----------- 
---------|------------------------------------------------------|----------- 
---------|------------------------------------------------------|----------- 
 
            1 1/2                2 
19bf-19bf-|-19b-----19bf--19bf--21b--|-21~---17-19-21p19-17s16h17-|-19p17p16 
----------|--------------------------|----------------------------|--------- 
----------|--------------------------|----------------------------|--------- 
----------|--------------------------|----------------------------|--------- 
----------|--------------------------|----------------------------|--------- 
----------|--------------------------|----------------------------|--------- 
 
 
---16-17p16----------------------------------------|-17-16-14-13-------16p14 
19----------19p18h19p18----------------------------|-------------15-14------ 
------------------------18p16p14-18p16p14-16p14s13-|------------------------ 
---------------------------------------------------|------------------------ 
---------------------------------------------------|------------------------ 
---------------------------------------------------|------------------------ 
 
 
s13-------17p16-14-|-13-------16p14-13-------17-16-14-13-16-14-13----|-14--- 
----15-14----------|----15-14----------15-14----------------------15-|------ 
-------------------|-------------------------------------------------|------ 
-------------------|-------------------------------------------------|------ 
-------------------|-------------------------------------------------|------ 
-------------------|-------------------------------------------------|------ 
 
 
13----------13-----------------------------------------|-------------------- 
---15-14h15----15p14-15-14-12-10-14-12-10-9-12-10-9----|-10-9----9-10p9----- 
----------------------------------------------------11-|------11--------11-- 
-------------------------------------------------------|-------------------- 
-------------------------------------------------------|-------------------- 
-------------------------------------------------------|-------------------- 
 
 
-------|-19-16-17----16-------------------------------|--------------------- 
9------|----------19----18-19-15-18-14-15----14-------|--------------------- 
--11~--|----------------------------------16----14-16-|-13-14----13--------- 
-------|----------------------------------------------|-------16----14-16-12 
-------|----------------------------------------------|--------------------- 
-------|----------------------------------------------|--------------------- 
 
 
--------------|---------------------------------------------------|--------- 
----------12s-|-14p12p10------------------------------------------|--------- 
--------------|----------13-11p9---------13p11p10------------11-9-|--------- 
14-11~--------|------------------12-11-9----------12-11-9---------|-12-11-9- 
--------------|-------------------------------------------12------|--------- 
--------------|---------------------------------------------------|--------- 
 
 
----------------------------------|---------7--------|-10p9p7----9p7-------- 
----------------------------------|-10bf~-----10p9p7-|--------10------------ 
----------------------------------|------------------|---------------------- 
---11-9-------9-------------------|------------------|---------------------- 
12------12-11---12-11p9-12-11-9s8-|------------------|---------------------- 
----------------------------------|------------------|---------------------- 
 
 
--------------------------|-------------------|--------|-------------------| 
10p9sx--12p10p9----9------|-------------------|--------|-------------------| 
----------------11---11bf-|-11bf--11bf--11bf--|-11p10--|-keyboard-solo-----| 
--------------------------|-------------------|--------|-------------------| 
--------------------------|-------------------|--------|-------------------| 
--------------------------|-------------------|--------|-------------------| 
 
 
16~--16-16h17p16---------16------16------16--------16-|-t21p16h17p16h17----- 
-----------------19-19bf----19bf----19bf----19bf~-----|--------------------- 
------------------------------------------------------|--------------------- 
------------------------------------------------------|--------------------- 
------------------------------------------------------|--------------------- 
------------------------------------------------------|--------------------- 
 
 
t21p16h17p16h17--t21p16h17p16h17--t21p16h17p16h17--t21p16h17p16-----16------ 
-----------------------------------------------------------------19----19bf- 
---------------------------------------------------------------------------- 
---------------------------------------------------------------------------18~ 
---------------------------------------------------------------------------- 
---------------------------------------------------------------------------- 
 
 
--------|----------14-16-17-16-14-16-14----------14|---------------14-16-17- 
--------|-14-16-17----------------------17-16-17---|17-16-14-16-17---------- 
keys----|------------------------------------------|------------------------ 
--------|------------------------------------------|------------------------ 
--------|------------------------------------------|------------------------ 
--------|------------------------------------------|------------------------ 
 
 
16-14|16-14----------14-------16h17p16p14----------------------------------- 
-----|------17-16-17----17-16-------------17-16-15-14-------------14p13----- 
-----|------------------------------------------------16-14-13-------------- 
-----|---------------------------------------------------------16----------- 
-----|---------------------------------------------------------------------- 
-----|---------------------------------------------------------------------- 
 
 
-----|---------------------------------------------------------------------| 
-----|------------------------------------------------------------------14-| 
16-14|13----14p13----------------------------------------------13-14-16----| 
-----|---16-------16-14-13----13-14-13----13----------13-14-16-------------| 
-----|---------------------16----------16----16-15-16----------------------| 
-----|---------------------------------------------------------------------| 
 
 
------17-16-14-16-14-------17s19bf~---|------------------------------------| 
16-17----------------17-16------------|------------------------------------| 
--------------------------------------|---------keys-----------------------| 
--------------------------------------|------------------------------------| 
--------------------------------------|------------------------------------| 
--------------------------------------|------------------------------------| 
 
 
---------16-12-16s21~--|16-------------16-19------------|------------------| 
------14---------------|----19bf--19bf-------19bf-19p17-|-s16---------9h12-| 
---13------------------|--------------------------------|-----18-16~-------| 
14---------------------|--------------------------------|------------------| 
-----------------------|--------------------------------|------------------| 
-----------------------|--------------------------------|------------------| 
 
                                         1/2     1/2      1/2 
9-12p11p9-12-16-12-9----12------9------|-------------9---------------------| 
---------------------12----12bf---12p9-|------9--------12------------------| 
---------------------------------------|-11b-----11b------11b-rb-p9-11~-p9~| 
---------------------------------------|-----------------------------------| 
---------------------------------------|-----------------------------------| 
---------------------------------------|-----------------------------------| 
 
 
|-------9-------------------------------|----------------------------------| 
|----------12p9------9------------------|----------------------------------| 
|-11bf----------11bf---12p11p9----11p9--|----------------------------------| 
|------------------------------11-------|-11-9-----------------------------| 
|---------------------------------------|------11-10-9h10-11p10p9----------| 
|---------------------------------------|-------------------------12~------| 
 
 
|----------------------|-----14---12p11--------|---14bf------rb14p12-------| 
|----------------------|---x-------------14~---|---------------------------| 
|---------11-9~--------|-x---------------------|---------------------------| 
|-------x--------------|-----------------------|---------------------------| 
|--9s11----------------|-----------------------|---------------------------| 
|----------------------|-----------------------|---------------------------| 
 
 
|-s21-----21bf~----17-16-17-|-19-21-19-17-16-19-17-16----17-16-------16----- 
|---------------------------|-------------------------19-------19-17----19-- 
|---------------------------|----------------------------------------------- 
|---------------------------|----------------------------------------------- 
|---------------------------|----------------------------------------------- 
|---------------------------|----------------------------------------------- 
 
 
-------|------------------------------------------------------------|------- 
-17-16-|-19-17-16-14-17-16-14-12--16-14-12-10-14-12-10-9-12-10-9----|-9----- 
-------|---------------------------------------------------------11-|---11bf 
-------|------------------------------------------------------------|------- 
-------|------------------------------------------------------------|------- 
-------|------------------------------------------------------------|------- 
 
 
-9---------------------9--|------------------------------------------------| 
---x----------------------|------------------------------------------------| 
-----11bf--rb11p9-11bf----|-11bf--rb11p9--11p9s8--9h11p9----8~-------------| 
--------------------------|------------------------------11----------------| 
--------------------------|------------------------------------------------| 
--------------------------|------------------------------------------------| 
 
 
|--11~--11~--11~--12--14--|-12h14--12h14p12p11-12~----|-14~--14~--14~--16-17| 
|-------------------------|---------------------------|---------------------| 
|-------------------------|---------------------------|---------------------| 
|-------------------------|---------------------------|---------------------| 
|-------------------------|---------------------------|---------------------| 
|-------------------------|---------------------------|---------------------| 
 
 
|-16--17bf-------|-rb17~---14~------|--16-17-16-s12~---|-11h12---11--------| 
|----------------|------------------|------------------|--------------14---| 
|----------------|------------------|------------------|-------------------| 
|----------------|------------------|------------------|-------------------| 
|----------------|------------------|------------------|-------------------| 
|----------------|------------------|------------------|-------------------| 
 
 
|----------14-17p14-------------17h20p17----21bf~--|-s21-21-21-21-21-21-21-- 
|-------16----------16-------19----------19--------|------------------------ 
|-14s17----------------17s20-----------------------|------------------------ 
|--------------------------------------------------|------------------------ 
|--------------------------------------------------|------------------------ 
|--------------------------------------------------|------------------------ 
 
 
-21--19h21p19p17-19p17-16-------------------|------------------------------- 
--------------------------19h21p19p17-19p17-|-16-17-19p17p16----19-17-16s14- 
--------------------------------------------|----------------18------------- 
--------------------------------------------|------------------------------- 
--------------------------------------------|------------------------------- 
--------------------------------------------|------------------------------- 
 
 
--------------------------|-----------------------------------------|------- 
-17-16-14-12-16-14-12-10--|-14-12-10-9h10p9-------------------------|------- 
--------------------------|------------------11bf--11bf--11bf-rb11p9|h11~p9- 
--------------------------|-----------------------------------------|------- 
--------------------------|-----------------------------------------|------- 
--------------------------|-----------------------------------------|------- 
 
 
--------------------|-----------------------------12-14s16s17s16p14p12-16p14 
--------------------|--------------------13-14-16--------------------------- 
-h11p9s8h9~---------|--------------13-14------------------------------------ 
--------------------|-----13-14-16------------------------------------------ 
--------------------|-s16--------------------------------------------------- 
--------------------|------------------------------------------------------- 
 
 
-p12-|----12-14p12-------12-----------------------------|------------------- 
-----|-16----------16-14----16-14h16p14-13-14-13--------|----------------14- 
-----|-------------------------------------------14p13~-|-------13-14-16---- 
-----|--------------------------------------------------|-14-16------------- 
-----|--------------------------------------------------|------------------- 
-----|--------------------------------------------------|------------------- 
 
 
----12-16p12----17p14----17s20-|p17----------17-20p17----21bf~-------------| 
-16----------14-------16-------|----19p16h19----------19-------------------| 
-------------------------------|-------------------------------------------| 
-------------------------------|-------------------------------------------| 
-------------------------------|-------------------------------------------| 
-------------------------------|-------------------------------------------| 
 
 
|-21-18----21s18-15----18s15-12----15s12-9----12s9-------9-|-12p9----------- 
|-------20----------17----------14---------11------11------|------11-------- 
|-----------------------------------------------------12---|---------12-9-12 
|----------------------------------------------------------|---------------- 
|----------------------------------------------------------|---------------- 
|----------------------------------------------------------|---------------- 
 
 
------------------------|--------------------------------------------------| 
------------------------|--------------------------------------------------| 
----9-------------------|---11bf---rb11p9s8h11p9p8--9p8-------8------------| 
-11---11-8-11----8------|-------------------------------11-10---11-10------| 
--------------10---10~--|---------------------------------------------11~--| 
------------------------|--------------------------------------------------| 
 
 
|--------------------------------------------|------------------------------ 
|--------------------------------------------|-------------------------10-12 
|--------------------------------------------|-----------------9-11-13------ 
|--------------10----------------------------|---------9-11-13-------------- 
|---------9-11----12-11-9---------------9-11-|-9-11-12---------------------- 
|-9-11-12-----------------12-11-9-11-12------|------------------------------ 
 
 
----11-12-------12-14-11-12-14-16-|-12-14-16-17-16-14-21-14-16-17-16-14-21-- 
-14-------14-11-------------------|----------------------------------------- 
----------------------------------|----------------------------------------- 
----------------------------------|----------------------------------------- 
----------------------------------|----------------------------------------- 
----------------------------------|----------------------------------------- 
 
 
-14-16-17-|-16-14-21-14-16-17-16-14-17-s21-|--21bf-rb-bf-rb-bf---|--(21)---| 
----------|--------------------------------|---------------------|---------| 
----------|--------------------------------|---------------------|---------| 
----------|--------------------------------|---------------------|---------| 
----------|--------------------------------|---------------------|---------| 
----------|--------------------------------|---------------------|---------| 
 
 
|-----------------------------------------------|--------------------------| 
|-----------------------------------------------|--------------------------| 
|-11bf-rb11p9s8h11p9p8----9p8------8------------|--------------------------| 
|----------------------11-----11-9----11p9p7----|-9-7s6---6----------------| 
|--------------------------------------------11-|-------9---9s11~----------| 
|-----------------------------------------------|--------------------------| 
 
 
|--------9h12p9-------------12h15p12-------------15h18p15----|----------18h- 
|-----11--------11-------14----------14-------17----------17-|-------20----- 
|-s12--------------12s15----------------15s18----------------|-18s21-------- 
|------------------------------------------------------------|-------------- 
|------------------------------------------------------------|-------------- 
|------------------------------------------------------------|-------------- 
 
 
21~--------|--17p16p14--16p14----14-----------17p16p14---------------------| 
-----------|------------------17----17-16-14s----------17p16p14------------| 
-----------|----------------------------------------------------16p14s13---| 
-----------|---------------------------------------------------------------| 
-----------|---------------------------------------------------------------| 
-----------|---------------------------------------------------------------| 
 
 
|-----------------------------------|-21-18------s18p15--------------------| 
|-17p16p14----14--------------------|-------20~---------17-----------------| 
|----------16----16p14s13----13~----|----------------------18~-------------| 
|-------------------------16--------|--------------------------------------| 
|-----------------------------------|--------------------------------------| 
|-----------------------------------|--------------------------------------| 
 
 
|-15-12-----------12-9-----------|-s12-12-12-11h12p11p9-11h12p11p9--9-11-x-- 
|-------14-------------11--------|------------------------------------------ 
|----------15~------------12~----|------------------------------------------ 
|--------------------------------|------------------------------------------ 
|--------------------------------|------------------------------------------ 
|--------------------------------|------------------------------------------ 
 
 
-11-9--|-9h11h12p11p9-11p9s8------8------------------|---------------------- 
-------|---------------------10-9---10p9------9------|---------------------- 
-------|---------------------------------11-9---11p9s|8h9p8h9p8-------8----- 
-------|---------------------------------------------|----------11-10---11-- 
-------|---------------------------------------------|---------------------- 
-------|---------------------------------------------|---------------------- 
 
 
------------------------|----------------------------|---------------------| 
------------------------|----------------------------|---------------------| 
------------------------|----------------------------|------------8-9~-----| 
-10---------------------|----------------------------|-------6-11----------| 
-----12-11-x-12-11-9----|-------9--------------------|---6-7---------------| 
---------------------12-|-11-12---12-11--9s7h9~------|-9-------------------| 
 
 
|------------------------|-------------------|-11p9p8----9p8------8--------- 
|------------------------|-------------------|--------10-----10p9---10p9---- 
|------------8-9dive-8---|------------8--9~--|------------------------------ 
|-------6-11-------------|-------6-11--------|------------------------------ 
|---6-7------------------|---6-7-------------|------------------------------ 
|-9----------------------|-9-----------------|------------------------------ 
 
 
------------|----------------------|---------------------|-----------------| 
------------|----------------------|---------------------|-----------------| 
-11p9s8~----|------------8-9dive---|------------8-9--8~--|---------8-9~----| 
------------|-------6-11-----------|-------6-11----------|-------6---------| 
------------|---6-7----------------|---6-7---------------|---6-7-----------| 
------------|-9--------------------|-9-------------------|-9---------------| 
 
 
|-s18p16p14------------------------------------|---------------------------| 
|-----------17-16-14---------------------------|---------------------------| 
|--------------------17-14-13------------------|------------8-9~-----------| 
|-----------------------------16-14-13---------|-------6-11----------------| 
|--------------------------------------16-15~--|---6-7---------------------| 
|----------------------------------------------|-9-------------------------| 
 
 
|---------------------------|-------------------|--14bf----rb1 1/2--14bf---| 
|---------------------------|-------------------|--------------------------| 
|------------8-9~--8tr9-8~--|------------8-9~---|--------------------------| 
|-------6-11----------------|-------6-11--------|--------------------------| 
|---6-7---------------------|---6-7-------------|--------------------------| 
|-9-------------------------|-9-----------------|--------------------------| 
 
* a.h. 
|-----------------------|----------------------|---------------------------| 
|-----------------------|----------------------|---------------------------| 
|------------8--9*-9*---|------------8-9--8~---|------------8-9~-----------| 
|-------6-11------------|-------6-11-----------|-------6-11----------------| 
|---6-7-----------------|---6-7----------------|---6-7---------------------| 
|-9---------------------|-9--------------------|-9-------------------------| 
 
 
|-12-11-9-8-9-11-|-12-11h12p11-9-8-9-11-|-12-9-11-12-14-11-12-14-16-12-14-16 
|----------------|----------------------|----------------------------------- 
|----------------|----------------------|----------------------------------- 
|----------------|----------------------|----------------------------------- 
|----------------|----------------------|----------------------------------- 
|----------------|----------------------|----------------------------------- 
 
 
17-14-16-17|16-14-17-14-16-17-16-14-21-16----------16-20-17-|---------17-21- 
-----------|------------------------------17----17----------|19----19------- 
-----------|---------------------------------18-------------|---20---------- 
-----------|------------------------------------------------|--------------- 
-----------|------------------------------------------------|--------------- 
-----------|------------------------------------------------|--------------- 
 
 
-16----------16-20-17----------17-|-21-16-------------|----------------16--- 
----17----17----------19----19----|-------17----------|-------------17------ 
-------18----------------20-------|----------18-13----|-------13-18--------- 
----------------------------------|----------------14-|----14--------------- 
----------------------------------|-------------------|-16------------------ 
----------------------------------|-------------------|--------------------- 
 
 
-21-16-------------|-----------------|---------------|| 
-------17----------|-----------------|---------------|| 
----------18-13----|-----------------|---9-----------|| 
----------------14-|-----------------|---9-----------|| 
-------------------|-16~-------6-----|---7-----------|| 
-------------------|-----------7-----|---------------||





Calificar esta versión:
Aviso: Este fichero es trabajo propio de su transcriptor y representa su interpretación personal de la canción. El material contenido en esta página es para exclusivo uso privado, por lo que se prohibe su reproducción o retransmisión, así como su uso para fines comerciales.